Green Day - Ha Ha Youre Dead Chords & Tabs

 

Ha Ha Youre Dead Chords & Tabs

Green Day Chords & Tabs

Version: 1 Type: Tab 0 ratings
1 star 2 stars 3 stars 4 stars 5 stars
comments

Ha Ha Youre Dead Tab

   
This is my first ever attemp at tabbing but its an easy song

Just lissen to song to figgure it out


Ha Ha you're dead
Green Day

Verse Chords
C G Am

Bridge
F G

Chorus
C F C G
Am F C G C

Solo
[ Tab from: http://www.guitartabs.cc/tabs/g/green_day/ha_ha_youre_dead_tab.html ]
e--------------------------------------
b--------------------------------------
g-9--9--9---10--10--10--9--9--9--12--12--12--12-----------
d--10-10-10---10--10--10-10-10-10--12--12--12--12----------------
a--------------------------------------
E--------------------------------------

e--------------------------------------
b--------------------------------------
g-9--9--9---10--10--10--9--9--9--12--12--12--12---9--9--9--9--
d--10-10-10---10--10--10-10-10-10--12--12--12--12--10-10-10-10-----------
a--------------------------------------
E-------------------------------

ending chords
C G Am F
C G C

order:

verse
Bridge
verse
Bridge
Chorus
Solo
Chorus
Chorus (2nd guitar - solo)
Ending Chords
last chord - C
Comments