Green Day - Green Day Chords & Tabs

 

Green Day Chords & Tabs

Green Day Chords & Tabs

Version: 4 Type: Bass Tab 0 ratings
1 star 2 stars 3 stars 4 stars 5 stars
comments

Green Day Bass Tab

Tabbed by Andrew Jones
Email comments to: snbritishfreak@hotmail.com

Standard Tuning


Intro : 
G|-----------------|
D|-----------------|
A|---------5*------|
E|-7*--0*------7*--|

G|--------------------------------------|
D|---------------------------4-2-0-2----|  x2
A|-----------------2-2-2-2-2------------|
E|-4-4-4-4-0-0-0-0----------------------|

Chorus :
G|----------------------------------|
D|----------------------------------|
A|-----------------2-2-2-2-2-2-2-2--|
E|-4-4-4-4-0-0-0-0------------------|

G|------------------------------|
D|------------------------------|
A|-----------------2-2-2-2-0-2--|
E|-4-4-4-4-0-0-0-0--------------|
[ Tab from: http://www.guitartabs.cc/tabs/g/green_day/green_day_btab_ver_4.html ]
Verse :
G|------------------6-------4-----4----------------------------------------|
D|----------------------4-----2h4------------------------------------------|
A|7-7-7-7-5-5-5-5-4---4---2------------------------------------------------|
E|----------------------------------2-2-2-2-2-5-5-5-5-5-0-0-0-0-0-0-0-0-0-0|


Guitar Solo :
G|----9-9-----7-7---6-------4-----4----------------------------------------|
D|----------------------4-----2h4------------------------------------------|
A|7-7-----5-5-----4---4---2------------------------------------------------|
E|----------------------------------2-2-2-2-2-5-5-5-5-5-0-0-0-0-0-0-0-0-0-0|

End :
G|-------------------6-------4-----4-------|
D|-----------------------4-----2h4---------|
A|-7-7-7-7-5-5-5-5-4---4---2-----------0*--|
E|-----------------------------------2-----|

* = let ring
Comments