Green Day - Green Day Chords & Tabs

 

Green Day Chords & Tabs

Green Day Chords & Tabs

Version: 2 Type: Bass Tab 0 ratings
1 star 2 stars 3 stars 4 stars 5 stars
comments

Green Day Bass Tab

   
Green Day 
by Green Day
transcribed by Adam Huff
email 199.199.132.74



                       "Green Day"

This is my first tab & I know it's not perfect
but it's pretty close.

Intro:
E-4-4-4-40-0-0-0-----------?------------------
A-----------------2-2-2-2--?------------------
D--------------------------?------------------
G--------------------------?------------------
[ Tab from: http://www.guitartabs.cc/tabs/g/green_day/green_day_btab_ver_2.html ]
Verse & Solo:
E--------------------------------------------------------------------------------------
A-7-7-7-7-5-5-5-5-4-4-4-4-2-2-2-2-2-2-2-9-9-9-9-9-0-0-0-0-0-0-0-7-7-7-7-7-7-7-7-7-7-7-7
D--------------------------------------------------------------------------------------
G--------------------------------------------------------------------------------------

Chorus:
E-4-4-4-4-0-0-0-0----------------4-4-4-4-0-0-0-0-----------------
A-----------------2-2-2-2-2-2-2------------------2-2-2-2-0-0-0-0-
D----------------------------------------------------------------
G----------------------------------------------------------------

Comments