Green Day - Governator Chords & Tabs

 

Governator Chords & Tabs

Green Day Chords & Tabs

Version: 1 Type: Tab 0 ratings
1 star 2 stars 3 stars 4 stars 5 stars
comments

Governator Tab

   
Band: Green Day
Song: Governator
ALbum: American Idiot CDS

gtr comes in at the 2nd verse

e|----------------------------------------|
B|----------------------------------------|
G|---9999999999-777777777-444444444444444-|
D|---xxxxxxxxxx-xxxxxxxxx-xxxxxxxxxxxxxxx-|
A|-5/7777777777-555555555-222222222222222-|
E|----------------------------------------|

e|---------------------------------------|
B|---------------------------------------|
G|-99999999999------------77777777777777-|
D|-xxxxxxxxxxx-7777777777-xxxxxxxxxxxxxx-|
A|-77777777777-xxxxxxxxxx-55555555555555-|
E|-------------5555555555----------------|

Chorus:
   E5 B5
e|----------------------|x4
B|----------------------|
G|-99-------------------|
D|-99-99999999999999999-|
A|-77-99999999999999999-|
E|----77777777777777777-|
[ Tab from: http://www.guitartabs.cc/tabs/g/green_day/governator_tab.html ]
post-chorus:
   E5  D5  A5  D5
e|----------------|x4
B|----------------|
G|-99--77------77-|
D|-99--77--77--77-|
A|-77--55--77--55-|
E|---------55-----|

verse: guitar doesn't play (scratch at the end of each verse)

repeat chorus
repeat post-chorus
repeat chorus

bridge:
e|----------------------------------------------------------|
B|----------------------------------------------------------|
G|---9999999999-777777777-444444444444444-22222222222222222-|
D|---xxxxxxxxxx-xxxxxxxxx-xxxxxxxxxxxxxxx-xxxxxxxxxxxxxxxxx-|
A|-5/7777777777-555555555-222222222222222-00000000000000000-|
E|----------------------------------------------------------|

e|------------------------------------------------------------------------|
B|------------------------------------------------------------------------|
G|-99999999999999-111111111111111111111111111111111111111-777777777777777-|
D|-xxxxxxxxxxxxxx-x-x-x-x-x-x-x-x-x-x-x-x-x-x-x-x-x-x-x-x-xxxxxxxxxxxxxxx-|
A|-77777777777777-9-9-9-9-9-9-9-9-9-9-9-9-9-9-9-9-9-9-9-9-555555555555555-|
E|------------------------------------------------------------------------|

repeat post-chorus x2

end on E5

that's it!rate :P
Comments