Green Day - Good Riddance (time Of Your Life) Chords & Tabs

 

Good Riddance (time Of Your Life) Chords & Tabs

Green Day Chords & Tabs

Version: 4 Type: Tab 0 ratings
1 star 2 stars 3 stars 4 stars 5 stars
comments

Good Riddance (time Of Your Life) Tab

Green Day: Good Riddance(Time of Your Life).
Tabbed by Hefty Baggs mikej7_2000@hotmail.com.
  
ARTIST: Green Day
SONG: Good Riddance (Time of Your Life)
ALBUM: Nimrod
TAB BY: Hefty Baggs
-------------------------------------------------------------

Intro: (repeat)

|---------|
|---------|
|-----0---|
|-------0-|
|---------|
|-3-3-----|

Verse: (repeat)

|-------------------------------------------------------|
|-----3-------------3-------------3-------------3-------|
|-------0---0---------0---0---------0---0-----2---2---0-|
|---------0-------0-----0-------2-----2-----0-------0---|
|-----------------------------3-------------------------|
|-3-3-----------3---------------------------------------|


Verse (Part 2):

|-----------------------------------------------------|
|-----0------------3-------------3-------------3------|
|-------0---0----2---2---0---------0---0---------0---0|
|---2-----2----0-------0-------2-----2-------0-----0--|
|-2--------------------------3------------------------|
|------------------------------------------3----------|

|-----------------------------------------------------|
|-----0------------3-------------3-------------3------|
|-------0---0----2---2---0---------0---0---------0---0|
|---2-----2----0-------0-------2-----2-------0-----0--|
|-2--------------------------3------------------------|
|------------------------------------------3----------|
[ Tab from: http://www.guitartabs.cc/tabs/g/green_day/good_riddance_time_of_your_life_tab_ver_4.html ]
|--------------------------|
|-----0-------------3------|
|-------0---0---------0---0|
|---2-----2-------0-----0--|
|-2------------------------|
|---------------3----------|

|--------------------------|
|-----0-------------3------|
|-------0---0---------0---0|
|---2-----2-------0-----0--|
|-2------------------------|
|---------------3----------|

|---------------------------|
|-----0-------------3-------|
|-------0---0-----2---2---2-|
|---2-----2-----0-------0---|
|-2-------------------------|
|---------------------------|

Pre/Chorus: (Chords repeated)
|-3----0----2-|
|-3----3----3-|
|-0----0----2-|
|-0----2----0-|
|-2----3------|
|-3-----------|

|-0---2---0---3-|
|-0---3---3---3-|
|-0---2---0---0-|
|-2---0---2---0-|
|-2-------3---2-|
|-------------3-|

|-0---3-|
|-0---3-|
|-0---0-|
|-2---0-|
|-2---2-|
|-----3-|

|-0---2-|
|-0---3-|
|-0---2-|
|-2---0-|
|-2-----|
|-------|

Return to Pre/Chorus


|--------------------------|
|-----0-------------3------|
|-------0---0---------0---0|
|---2-----2-------0-----0--|
|-2------------------------|
|---------------3----------|

|--------------------------|
|-----0-------------3------|
|-------0---0---------0---0|
|---2-----2-------0-----0--|
|-2------------------------|
|---------------3----------|

|---------------------------|
|-----0-------------3-------|
|-------0---0-----2---2---0-|
|---2-----2-----0-------0---|
|-2-------------------------|
|---------------------------|

Return to Verse

Ending Chord:

|-3-|
|-3-|
|-0-|
|-0-|
|-2-|
|-3-| 
:: Ultimate Guitar Archive :: 
http://www.ultimate-guitar.com 

Comments