Green Day - Good Riddance (time Of Your Life) Chords & Tabs

 

Good Riddance (time Of Your Life) Chords & Tabs

Green Day Chords & Tabs

Version: 2 Type: Tab 13 ratings
1 star 2 stars 3 stars 4 stars 5 stars
comments

Good Riddance (time Of Your Life) Tab

Intro:
E|---------------------------------------------------------|
B|-----3-------------3-------------3-------------3---------|
G|-------0---0---------0---0---------0---0-----0---0---0---| (x2)
D|---0-----0-------0-----0-------2-----2-----2-------2-----|
A|-----------------------------3---------------------------|
E|-3-------------3-----------------------------------------|

Verse:
E|---------------------------------------------------------|
B|-----3-------------3-------------3-------------3---------|
G|-------0---0---------0---0---------0---0-----0---0---0---| (x2)
D|---0-----0-------0-----0-------2-----2-----2-------2-----|
A|-----------------------------3---------------------------|
E|-3-------------3-----------------------------------------|

Chorus:
E|---------------------------------------------------------|
B|-----0-------------3-------------3-------------3---------|
G|-------0---0-----0---0---0---------0---0---------0---0---| (x2)
D|---2-----2-----2-------2-------2-----2-------0-----0-----|
A|-2---------------------------3---------------------------|
E|-------------------------------------------3-------------|

E|-----------------------------------------------------------------------------------|
B|-----0-------------3-------------0-------------3-------------0-------------3-------|
G|-------0---0---------0---0---------0---0---------0---0---------0---0-----0---0---0-|
D|---2-----2-------0-----0-------2-----2-------0-----0-------2-----2-----2-------2---|
A|-2---------------------------2---------------------------2-------------------------|
E|---------------3---------------------------3---------------------------------------|

[You will strum from here on out.]

Verse:
E|---------------------------------------------------------|
B|-----3-------------3-------------3-------------3---------|
G|-------0---0---------0---0---------0---0-----0---0---0---| (x2)
D|---0-----0-------0-----0-------2-----2-----2-------2-----|
A|-----------------------------3---------------------------|
E|-3-------------3-----------------------------------------|

E|---------------------------------------------------------|
B|-----3-------------3-------------3-------------3---------|
G|-------0---0---------0---0---------0---0-----0---0---0---| (x2)
D|---0-----0-------0-----0-------2-----2-----2-------2-----|
A|-----------------------------3---------------------------|
E|-3-------------3-----------------------------------------|

E|---------------------------------------------------------|
B|-----0-------------3-------------3-------------3---------|
G|-------0---0-----0---0---0---------0---0---------0---0---| (x2)
D|---2-----2-----2-------2-------2-----2-------0-----0-----|
A|-2---------------------------3---------------------------|
E|-------------------------------------------3-------------|
[ Tab from: http://www.guitartabs.cc/tabs/g/green_day/good_riddance_time_of_your_life_tab_ver_2.html ]
E|-----------------------------------------------------------------------------------|
B|-----0-------------3-------------0-------------3-------------0-------------3-------|
G|-------0---0---------0---0---------0---0---------0---0---------0---0-----0---0---0-|
D|---2-----2-------0-----0-------2-----2-------0-----0-------2-----2-----2-------2---|
A|-2---------------------------2---------------------------2-------------------------|
E|---------------3---------------------------3---------------------------------------|

Instrumental:
E|---------------------------------------------------------|
B|-----3-------------3-------------3-------------3---------|
G|-------0---0---------0---0---------0---0-----0---0---0---| (x4)
D|---0-----0-------0-----0-------2-----2-----2-------2-----|
A|-----------------------------3---------------------------|
E|-3-------------3-----------------------------------------|

E|---------------------------------------------------------|
B|-----0-------------3-------------3-------------3---------|
G|-------0---0-----0---0---0---------0---0---------0---0---| (x2)
D|---2-----2-----2-------2-------2-----2-------0-----0-----|
A|-2---------------------------3---------------------------|
E|-------------------------------------------3-------------|

Chorus:
E|-----------------------------------------------------------------------------------|
B|-----0-------------3-------------0-------------3-------------0-------------3-------|
G|-------0---0---------0---0---------0---0---------0---0---------0---0-----0---0---0-|
D|---2-----2-------0-----0-------2-----2-------0-----0-------2-----2-----2-------2---|
A|-2---------------------------2---------------------------2-------------------------|
E|---------------3---------------------------3---------------------------------------|

E|---------------------------------------------------------|
B|-----3-------------3-------------3-------------3---------|
G|-------0---0---------0---0---------0---0-----0---0---0---| (x2)
D|---0-----0-------0-----0-------2-----2-----2-------2-----|
A|-----------------------------3---------------------------|
E|-3-------------3-----------------------------------------|

[You will be picking from here on out.]

Chorus:
E|-----------------------------------------------------------------------------------|
B|-----0-------------3-------------0-------------3-------------0-------------3-------|
G|-------0---0---------0---0---------0---0---------0---0---------0---0-----0---0---0-|
D|---2-----2-------0-----0-------2-----2-------0-----0-------2-----2-----2-------2---|
A|-2---------------------------2---------------------------2-------------------------|
E|---------------3---------------------------3---------------------------------------|

Ending:
E|---------------------------------------------------------|
B|-----3-------------3-------------3-------------3---------|
G|-------0---0---------0---0---------0---0-----0---0---0---|
D|---0-----0-------0-----0-------2-----2-----2-------2-----|
A|-----------------------------3---------------------------|
E|-3-------------3-----------------------------------------|

E|----------------------------------------------------3---|
B|-----3-------------3-------------3-------------3----3---|
G|-------0---0---------0---0---------0---0-----0------0---|
D|---0-----0-------0-----0-------2-----2-----2--------0---|
A|-----------------------------3----------------------2---|
E|-3-------------3------------------------------------3---|
Comments