Green Day - Good Riddance (time Of Your Life) Chords & Tabs

 

Good Riddance (time Of Your Life) Chords & Tabs

Green Day Chords & Tabs

Version: 2 Type: Bass Tab 0 ratings
1 star 2 stars 3 stars 4 stars 5 stars
comments

Good Riddance (time Of Your Life) Bass Tab

I saw that the only other tab for this song was completly wrong.
this may not look right or sound right by itself, but when you put
it together with the guitar
[ Tab from: http://www.guitartabs.cc/tabs/g/green_day/good_riddance_time_of_your_life_btab_ver_2.html ]
VERSE,And chorus:
G-----------------------------------------------------------|
D--------0-----0------22--0--22--0-2-2-0-2-0----------------|
A------3-----3-----------3------3---------------------------|
E--3-3----3-3-----------3------3----3-----------------------|

G-----------------------------------------------------------|
D----0---0---0---0-22--0-22--0-2-2-0-2-0---0----------------|
A---3---3---3---3-----3-----3-------------3-----------------|
E-33--33--33--33-----3-----3----3-------33------------------|

you do the same thing for the rest of the song then you end on E---3----
Comments