Green Day - Going To Pasalacqua Chords & Tabs

 

Going To Pasalacqua Chords & Tabs

Green Day Chords & Tabs

Version: 1 Type: Tab 2 ratings
1 star 2 stars 3 stars 4 stars 5 stars
comments

Going To Pasalacqua Tab

Artist: Green Day
Song: Going To Pasalacqua
Album: 1,039/Smoothed Out Slappy Hours
Tabbded by:  Ben Fedigan of Subcutaneous

Intro:
|-5---------------------------
|-5---------------------------
|-6--5h6p5h6p5----------------
|-7---------------------------
|-7---------------------------
|-5---------------------------
And ya keep hammering and pulling off for a while

Verse:
|-----------------------------------
|-----------------------------------
|-9-9-9-9-7-7-7-7-------------------
|-9-9-9-9-7-7-7-7-7-7-7-7-7-7-7-7---
|-7-7-7-7-5-5-5-5-7-7-7-7-7-7-7-7---
|-----------------5-5-5-5-5-5-5-5--- (X2)
[ Tab from: http://www.guitartabs.cc/tabs/g/green_day/going_to_pasalacqua_tab.html ]
|-----------------------------------
|-----------------------------------
|-7-7-----9-9-9-9--7-7-7-7----------
|-7-7-7-7-9-9-9-9--7-7-7-7-7-7-7-7--
|-5-5-7-7-7-7-7-7--5-5-5-5-7-7-7-7--
|-----5-5------------------5-5-5-5-- (First part of that X2)

Pre-Chorus:
"That's when i say..."
(P.M.)
|-------------
|-------------
|--7-7-7-7-X--
|--7-7-7-7-X--
|--5-5-5-5-X--
|-------------

Chorus:
"What the hey..."
|-----------------------------
|-----------------------------
|--------9-9-9-9-11-11-11-11--
|-X-7--7-9-9-9-9-11-11-11-11--
|-X-7--7-7-7-7-7-9--9--9--9---
|-X-5--5---------------------- (Pre-chorus and Chorus X2)

Then the whole damn song repeats.  This is one of my favoite old school Green Day songs back
When they wre still called Sweet Children ::Shudders::  I hope you enjoy it as much as I do!

Have a happy fucking day! :)
Comments