Green Day - Going To Pasalacqua Live Chords & Tabs

 

Going To Pasalacqua Live Chords & Tabs

Green Day Chords & Tabs

Version: 1 Type: Bass Tab 0 ratings
1 star 2 stars 3 stars 4 stars 5 stars
comments

Going To Pasalacqua Live Bass Tab

You will not get this version right if you dont listen to some live performances
where Green day includes this song... I have heard used the "live without
warning" consert to make this tab! If you have any corections just email me at
(OMAR_doggie@hotmail.com)



Verse 1
   
   G|------------------| |-----------------------|
   D|------------------| |-----------------------|
   A|-------5555-------| |------------5555-------|
   E|--0000------5555--| |--5555-0000------5555--|

   
   Pre chorus
                 (x2)
   G|----------------------------|
   D|----------------------------|
   A|--5555-----------5555-------|
   E|-------5555-0000------5555--|


    Chorus 
              (x2)
   G|---------------------------|
   D|---------------------------|
   A|-----------------5555------|
   E|--5555-0000-2222------5555-|


   Verse 2

   G|-------------------------------|
   D|-------------------------------|
   A|-----------------5555----------|
   E|--555555555-0000------5555555--|

   G|--9-7-6-7-6-4-2-4------------------|
   D|------------------7-5-4-5-4-2-0-2--|
   A|-----------------------------------|
   E|-----------------------------------|

   G|-----------------------------|
   D|-----------------------------|
   A|---------------5555----------|
   E|--5555555-0000------5555555--|
[ Tab from: http://www.guitartabs.cc/tabs/g/green_day/going_to_pasalacqua_live_btab.html ]
   
    Pre chorus
                 (x2)
   G|----------------------------|
   D|----------------------------|
   A|--5555-----------5555-------|
   E|-------5555-0000------5555--|


    Chorus 
              
   G|---------------------------| G|-------------------------------|
   D|---------------------------| D|-------------------------------|
   A|-----------------5555------| A|-----------------5555-0000000--|
   E|--5555-0000-2222------5555-| E|--5555-0000-2222---------------|


     Bridge
             (x2)
   G|--------------------22-4-2--|
   D|--------------00-44---------|
   A|--00-44-55-77---------------|
   E|----------------------------|

   G|------------------22-4-2-22-----------------------|
   D|------------00-44-----------55-44-22--------------|
   A|00-44-55-77--------------------------55-44-22-00--|
   E|--------------------------------------------------|
         (x2)
   G|-------------| |---------------------|
   D|-------------| |--------7-5-4-2------|
   A|--0000-5555--| |--00000---------5-4--|
   E|-------------| |---------------------|


   Pre chorus
                 (x2)
   G|----------------------------|
   D|----------------------------|
   A|--5555-----------5555-------|
   E|-------5555-0000------5555--|


    Chorus 
              (x3)
   G|---------------------------|
   D|---------------------------|
   A|-----------------5555------|
   E|--5555-0000-2222------5555-|


Play and enjoy!
Comments