Green Day - Give Me Novacaine Chords & Tabs

 

Give Me Novacaine Chords & Tabs

Green Day Chords & Tabs

Version: 5 Type: Tab 0 ratings
1 star 2 stars 3 stars 4 stars 5 stars
comments

Give Me Novacaine Tab

   
Give Me Novacaine Guitar Solo
Green Day
Tabbed by Chris Quiñones (e-mail FlipPlaysGuitar@cox.net)

i play it like this

e------------------------------- }
b-------------------------------  }
g------11-13-13-13-14-14-13-11--   }
d---11--------------------------    }
a-9-----------------------------     }
e-------------------------------      }
                                       } play 3 times
e-------------------------------      }
b----------------14-------------     }
g----14----14-------14----14-14-    }
d-------14----14-------14-------   }
a-12----------------------------  }
e------------------------------- }
[ Tab from: http://www.guitartabs.cc/tabs/g/green_day/give_me_novacaine_tab_ver_5.html ]
then play
e-------------------------------
b----------15----15-------------
g----16-------16----16----16-16-
d-------16-------------16-------
a-14----------------------------
e-------------------------------

e-------------------------------------------------
b-------------------------------------------------
g-13-13-13-13-14-14-14-14-16-16-16-16-16-16-16-16-
d-14-14-14-14-14-14-14-14-14-14-14-14-14-14-14-14-
a-------------------------------------------------
e-------------------------------------------------

and that's the solo!
thank you for your time.
questions, comments, and/or concerns?...that's why i put my e-mail up top!
Comments