Green Day - Give Me Novacaine Chords & Tabs

 

Give Me Novacaine Chords & Tabs

Green Day Chords & Tabs

Version: 4 Type: Bass Tab 0 ratings
1 star 2 stars 3 stars 4 stars 5 stars
comments

Give Me Novacaine Bass Tab

   
Green Day Give me Novacaine bass tab
From the album American Idiot
Track 7
Tabbed by Liam 
Email: guitar_rocker_47@hotmail.com 
Tuning standard

Please rate this guys, thanks



Intro played by acoustic guitar

Come in with lyrics
Verse
G|----------------------------------------------------------------------|
D|----------------------------------------------------------------------|
A|-------------------------------------2--2-2--2-2-2-2------------------|
E|-5--5-5--5-5-5-5---2--2-2--2-2-2-2--------------------0--0-0--0-0-0-0-|

Pre Chorus
G|----------------------------------------------------------------------|
D|-----------drain the pressure ----------------------------------------|
A|-5-5-5-5----from the swelling)----------------------------------------|
E|-------------------------------5-5-5-5-5-5-5-5-5-5-5-5-5-5-5-5--------|

G|----------------------------------------------------------------------|
D|-----------(this sensation's -----------------------------------------|
A|-5-5-5-5---- over whelming))------------------------------------------|
E|-------------------------------5-5-5-5-5-5-5-5-5-5-5-5-5-5-5-5--------|

Chorus
G|----------------------------------------------------------------------|
D-----------------------------------------------------------------------|
A|-5-5-5-5-5-5-5-5-5-5-5-5---------------------------2-2-2-2-2-2-2-2-2-2|
E|--------------------------2-2-2-2-2-2-2-2-2-2-2-2---------------------|
[ Tab from: http://www.guitartabs.cc/tabs/g/green_day/give_me_novacaine_btab_ver_4.html ]
G|----------------------------------------------------------------------|
D|----------------------------------------------------------------------|
A|-2-2-/--7-7-7-7-7-7-7-7-7-7-------------------------------------------|
E|----------------------------------------------------------------------|

Pre Solo
G|----------------------------------------------------------------------|
D|----------------------------------------------------------------------|
A|----------------------------------------------------------------------|
E|-x-x-x-x--5-5-5-5-5-5-5-5-5-5-5-5-5-5-5-5-5-5-5-5-5-5-5-5-5-5-5-5-5-5-|

Solo (play this while guitar plays a note solo)
E|------------------------|------------------------|
B|------------------------|------------------------|
G|------------------------|------------------------|
D|-4-4-4-4-4-4-4-4-4-4-4-4|-7-7-7-7-7-7-7-7-7-7-7-7| x3
A|-4-4-4-4-4-4-4-4-4-4-4-4|-7-7-7-7-7-7-7-7-7-7-7-7|
E|-2-2-2-2-2-2-2-2-2-2-2-2|-5-5-5-5-5-5-5-5-5-5-5-5|

E|------------------------|--------------------------------|     
B|------------------------|--------------------------------|    
G|------------------------|--------------------------------|   
D|-4-4-4-4-4-4-4-4-4-4-4-4|-7-7-7-7-7-7-7-7-7-7-7-7-7-7-7-7|
A|-4-4-4-4-4-4-4-4-4-4-4-4|-7-7-7-7-7-7-7-7-7-7-7-7-7-7-7-7|
E|-2-2-2-2-2-2-2-2-2-2-2-2|-5-5-5-5-5-5-5-5-5-5-5-5-5-5-5-5|	

Outro
G|----------------------------------------------------------------------|
D|----------------------------------------------------------------------|
A|-------------------------------------2--2-2--2-2-2-2------------------|
E|-5--5-5--5-5-5-5---2--2-2--2-2-2-2--------------------0--0-0--0-0-0-0-|

Order

Intro
Verse x2
Pre Chorus
Chorus
Verse x3
Pre Chorus
Chorus
Pre Solo
Solo
Pre Chorus
Chorus
Outro
Comments