Green Day - Give Me Novacaine Chords & Tabs

 

Give Me Novacaine Chords & Tabs

Green Day Chords & Tabs

Version: 2 Type: Bass Tab 0 ratings
1 star 2 stars 3 stars 4 stars 5 stars
comments

Give Me Novacaine Bass Tab

   
------------------------------------------------------------------
GREEN DA - GIVE ME NOVACAINE (AMERICAN IDIOT) 
------------------------------------------------------------------

[ Tabber: LUIZ MANZANO (BRASIL) ]
[ e-mail: lukdeluca@yahoo.com.br]


"Intro_Guitar"

"Drain the pressure from the swelling..."
G|-------------------------------------------------|
D|--------------------77\0------------------77\0---|
A|12\55555----------------55555--------------------|
E|--------555555555555----------555555555555-------|
                    
 
"Give me a long kiss goodnight and everything will be alright..."
G|----------------------------------------------------|
D|----------------------------------------------------|
A|5555555555555-------------222222222222/7-77777777---|
E|-------------222222222-240--------------------------|

Instrumental
G|-------------------------------------------------|
D|-------------------------------------------------|
A|-----------9-99-99-999-----------7-77-57-77------|
E|5-55-45-555-----------7-77-57-777----------4/5---|

"Out of body and out of mind..."
G|------------------------------------------------------|
D|------------------------------------------------------|
A|-----------9-99-99-999------------97-77-57-77---------|
E|5-55-45-555-----------7-77-57-77-7------------4/5-----|

"I get the funny feeling, that's alright..."
G|--------------------------------------------------|
D|--------------------------------------------------|
A|-----------9-99-99-999------------97-77-4/5-540---|
E|5-55-45-555-----------7-77-57-77-7----------------|
[ Tab from: http://www.guitartabs.cc/tabs/g/green_day/give_me_novacaine_btab_ver_2.html ]
"Drain the pressure from the swelling..."
G|----------------------------------------------|
D|-----------------77\0------------------77\0---|
A|55555-----------------55555-------------------|
E|-----555555555555----------555555555555-------|

"Give me a long kiss goodnight and everything will be alright..."
G|--------------------------------------------------99999999---|
D|-------------------------------------------------------------|
A|5555555555555-------------222222222222/7-77777777-77777777---|
E|-------------222222222-240-----------------------------------|


Solo...
G|--------------------------------------|
D|--------------------------------------|
A|--------------------------------------|
E|555555555555555555555555555555-14\2---|

...(repeat 3x)
G|---------------------------------|
D|---------------------------------|
A|---------------------------------|
E|22222222222222-5555555555554\2---|

G|---------------------------------|
D|---------------------------------|
A|222222222222/7-777777-7/19(7x)---|
E|---------------------------------|

"Drain the pressure from the swelling..."
G|----------------------------------------------|
D|-----------------77\0------------------77\0---|
A|55555-----------------55555-------------------|
E|-----555555555555----------555555555555-------|

"Give me a long kiss goodnight and everything will be alright..."
G|----------------------------------------------------|
D|----------------------------------------------------|
A|5555555555555-------------222222222222/7-77777777---|
E|-------------222222222-240--------------------------|

Final
G|--------------------------------------------------|
D|--------------------------------------------------|
A|-----------9-99-99-999------------7-77-57-77------|
E|5-55-45-555-----------7-77-57-77-7----------4/5---|



| /  slide up
| \  slide down
| h  hammer-on
| p  pull-off
| ~  vibrato
| +  harmonic
| x  Mute note
===============================================================================
Comments