Green Day - Geek Stink Breath Chords & Tabs

 

Geek Stink Breath Chords & Tabs

Green Day Chords & Tabs

Version: 4 Type: Tab 0 ratings
1 star 2 stars 3 stars 4 stars 5 stars
comments

Geek Stink Breath Tab

   
Geek Stink Breath
Green Day
Insomniac 1995

Tuning: 1/2 step down (sounds a semitone lower than written here)

->Intro
e|-----------------|
B|-----------------|
G|-----------------| 4x
D|-4-4-------9-9---|
A|-4-4-xx0-0-9-9-0-|
E|-2-2-xx0-0-7-7-0-|

->Verse 1 (part 1)
e|---------------------------------
B|---------------------------------
G|---------------------------------
D|-666-444-666-444-666-444-666-444-
A|-666-444-666-444-666-444-666-444-
E|-444x222x444x222x444x222x444x222-
    .  ..  ..  ..  ..  ..  ..  ..

->Verse 1 (part 2)
e|---------------------------------
B|---------------------------------
G|---------------------------------
D|-666-444-666-444-666-444-666-444- 
A|-666-444-666-444-666-444-666-444-
E|-444x222x444x222x444x222x444x222-
   ..  ..  ..  ..  ..  ..  ..  ..

->Verse 1 (part 3)
e|--------------------------------|
B|--------------------------------|
G|--------------------------------|
D|-666-444-666-444-666-444-666666-|
A|-666-444-666-444-666-444-666666-|
E|-444x222x444x222x444x222-444444-|
   ..  ..  ..  ..  ..  ..

->Chorus
e|--------|
B|--------|
G|-33-----|
D|-33-333-| 4x
A|-11-333-|
E|---x111-|

->Verse 2 (part 1)
e|--------------------------------
B|--------------------------------
G|--------------------------------
D|-660-444-660-444-660-444-666666-
A|-660-444-660-444-660-444-666666-
E|-440-222-440-222-440-222-444444-
[ Tab from: http://www.guitartabs.cc/tabs/g/green_day/geek_stink_breath_tab_ver_4.html ]
->Verse 1 (part 2)
e|---------------------------------
B|---------------------------------
G|---------------------------------
D|-666-444-666-444-666-444-666-444- 
A|-666-444-666-444-666-444-666-444-
E|-444x222x444x222x444x222x444x222-
   ..  ..  ..  ..  ..  ..  ..  ..
->Verse 1 (part 3)
e|--------------------------------
B|--------------------------------
G|--------------------------------
D|-666-444-666-444-666-444-666666- 
A|-666-444-666-444-666-444-666666-
E|-444x222x444x222x444x222-444444-
   ..  ..  ..  ..  ..  ..

->Chorus
e|--------|
B|--------|
G|-33-----|
D|-33-333-| 4x
A|-11-333-|
E|---x111-|

->Verse 2 (part 1)
e|--------------------------------
B|--------------------------------
G|--------------------------------
D|-660-444-660-444-660-444-666666-
A|-660-444-660-444-660-444-666666-
E|-440-222-440-222-440-222-444444-

->Interlude
e|-----------------|
B|-----------------|
G|-----------------| 8x
D|-4-4-------9-9---|
A|-4-4-xx0-0-9-9-0-|
E|-2-2-xx0-0-7-7-0-|

->Verse 2 (part 2)
e|--------------------------------
B|--------------------------------
G|--------------------------------
D|-660-444-660-444-660-444-660-444-
A|-660-444-660-444-660-444-660-444-
E|-440-222-440-222-440-222-440-222-

->Verse 2 (part 1)
e|--------------------------------
B|--------------------------------
G|--------------------------------
D|-660-444-660-444-660-444-666666-
A|-660-444-660-444-660-444-666666-
E|-440-222-440-222-440-222-444444-

->Chorus
e|--------|
B|--------|
G|-33-----|
D|-33-333-| 4x
A|-11-333-|
E|---x111-|

->Verse 2 (part 1)
e|--------------------------------
B|--------------------------------
G|--------------------------------
D|-660-444-660-444-660-444-666666-
A|-660-444-660-444-660-444-666666-
E|-440-222-440-222-440-222-444444-

->Outro (last 3 times "geek...stink...breath")
e|-----------------|   	|-----|
B|-----------------|	|-----|
G|-----------------| 6x	|-----|
D|-4-4-------9-9---|	|-4-4-|
A|-4-4-xx0-0-9-9-0-|	|-4-4-|
E|-2-2-xx0-0-7-7-0-|	|-2-2-|

So its like this:

Intro				4x
Verse 1 (part 1)		1x
Verse 1 (part 2)		1x
Verse 1 (part 3)		1x
Chorus			4x
Verse 2 (part 1)		1x
Verse 1 (part 2)		1x
Verse 1 (part 3)		1x
Chorus			4x
Verse 2 (part 1)		1x
Interlude (=intro)	8x
Verse 2 (part 2)		1x
Verse 2 (part 1)		1x
Chorus			4x
Verse 2 (part 1)		1x
Outro (=intro)		7x

Have fun!!!
emieljanssen@hotmail.com.
Comments