Green Day - Geek Stink Breath Chords & Tabs

 

Geek Stink Breath Chords & Tabs

Green Day Chords & Tabs

Version: 2 Type: Tab 0 ratings
1 star 2 stars 3 stars 4 stars 5 stars
comments

Geek Stink Breath Tab

"Geek Stink Breath"
By Green Day.
Albums: Insomniac,International Superhits!


I was looking at the other tabs for Geek Stink and they all...well...
stunk. This is in my opinion perfect. Its all bar chorded, of course.
Id normally just chord it, but since the timing is so easy (I picked
up the song perfectly after hearing it twice) I dont need to.


INTRO:

e|---------------------------|
B|---------------------------|
G|---------------------------|
D|-6-6--8-8-8-8-8------------|
A|-6-6--8-8-8-8-8------------|
E|-4-4--6-6-6-6-6------------|    4 times

VERSES:

e|---------------------------|
B|---------------------------|
G|---------------------------|
D|-6-6-6-6-4-4-4-4-----------|
A|-6-6-6-6-4-4-4-4-----------|
E|-4-4-4-4-2-2-2-2-----------|

"CHORUS":

e|---------------------------|
B|---------------------------|
G|-----4-4-------------------|
D|-4-4-4-4-------------------|
A|-4-4-2-2-------------------|
E|-2-2-2-2-------------------|    4 times

[ Tab from: http://www.guitartabs.cc/tabs/g/green_day/geek_stink_breath_tab_ver_2.html ]
Id put the order, but its obvious what goes where.
The outro ("Geek...Stink....Breath") is the same as the intro.

LYRICS:

Im on a mission
I made my decision
To lead a path of self destruction
A slow progression
Killing my complexion
And it's rotting out my teeth

I'm on a roll
No self comtrol
I'm blowing off steam with methamphetamine
Don't know what I want
That's all that I've got
And I'm picking scabs off my face

Every hour my blood is turning sour
And my pulse is beating out of time
I found a treasure
filled with sick pleasure
And it sits on a thin white line

I'm on a roll
No self comtrol
I'm blowing off steam with methamphetamine
Don't know what I want
That's all that I've got
And I'm picking scabs off my face

I'm on a mission
I got no decision
Like a cripple running the rat race
Wish in one hand sh*t in the other
And see which one gets filled first

I'm on a roll
No self comtrol
I'm blowing off steam with methamphetamine
Don't know what I want
That's all that I've got
And I'm picking scabs off my face

Geek...Stink...Breath.
Comments