Green Day - Geek Stink Breath Chords & Tabs

 

Geek Stink Breath Chords & Tabs

Green Day Chords & Tabs

Version: 5 Type: Bass Tab 0 ratings
1 star 2 stars 3 stars 4 stars 5 stars
comments

Geek Stink Breath Bass Tab

Tuned EADG
xxxx = palm mute
/ = slide down

Intro:
G-----------------------------|
D-----------------------------|
A-----------------------------|
E-22xxxx22xxxx22xxxx22--------|

G-------------------------------------------------|
D-------------------------------------------------|
A---12---21---12---21---12---21---12---9-9-8/-----|
E-22---00---22---00---22---00---22----------------|
[ Tab from: http://www.guitartabs.cc/tabs/g/green_day/geek_stink_breath_btab_ver_5.html ]
Verse:
G-------------|
D-------------|
A---12---21---|
E-22---00-----|

Chorus        4x
G-------------|
D-------------|
A-0-7-2-------|
E------0-000--|

G----------------------------------------|
D----------------------------------------|
A----------------------------------------|
E-222-0000-222-0000-222-0000-02222222----|

Bridge:
G-------------------------|
D-------------------------|
A---12-4-4-3/-------------|
E-22----------------------|

Very Simple. Please Rate.
Comments