Green Day - Geek Stink Breath Chords & Tabs

 

Geek Stink Breath Chords & Tabs

Green Day Chords & Tabs

Version: 4 Type: Bass Tab 0 ratings
1 star 2 stars 3 stars 4 stars 5 stars
comments

Geek Stink Breath Bass Tab

Geek stink Breath~Green day

Tabbed By : intermisine
e-mail: alexatwell@squinkles.com

Tuning:standard
scale:major

on this rare occasion, i'd advise using a pick.

| /  slide up
| \  slide down

intro: notes: where it says "x\" you simply mute the string drag your pick
along the string
G|---------------------------------------------------------------------------|
D|---------------------------------------------------------------------------|
A|---------------------------------------------------------------------------|
E|3-3-x\--3-3--3-3--3-3-12\--------------------------------------------------|


verse: he does a little fill right before the chorus, im pretty sure its just
a variation of the chorus though.
G|---------------------------------------------------------------------------|
D|---------------------------------------------------------------------------|
A|-----3---------------------------------------------------------------------|
E|-3-3---3-1-1-5-1-----------------------------------------------------------|
[ Tab from: http://www.guitartabs.cc/tabs/g/green_day/geek_stink_breath_btab_ver_4.html ]
chorus:
G|---------------------------------------------------------------------------|
D|---------------------------------------------------------------------------|
A|-----3---------------------------------------------------------------------|
E|3-3----1--1-5-1------------------------------------------------------------|

post chorus: on the last time he plays this im pretty sure he moves the last 4
notes up one string, to the 5th fret and leaves out the slide.
G|---------------------------------------------------------------------------|
D|---------------------------------------------------------------------------|
A|----3----------------------------------------------------------------------|
E|3-3---1--1-1-1/------------------------------------------------------------|

2nd verse: notes: when you slide from 1 to 3 on the E string you still pluck the
3rd fret when you hit it.
G|---------------------------------------------------------------------------|
D|---------------------------------------------------------------------------|
A|----------5-3-1------------------------------------------------------------|
E|3-3--1/-3------------------------------------------------------------------|

outro:
G|---------------------------------------------------------------------------|
D|---------------------------------------------------------------------------|
A|---------------------------------------------------------------------------|
E|3-3--3-3--3-3--------------------------------------------------------------|


well, enjoy. please rate.
Comments