Green Day - Geek Stink Breath Chords & Tabs

 

Geek Stink Breath Chords & Tabs

Green Day Chords & Tabs

Version: 1 Type: Bass Tab 2 ratings
1 star 2 stars 3 stars 4 stars 5 stars
comments

Geek Stink Breath Bass Tab

Song: Geek Stink Breath
Artist: Green Day
Album: Insomniac

Intro   X4
Gb--------
Db-----5--
Ab--------
Eb--3-----

Verse
Gb--------------------
Db--------------------
Ab------3h2------2p3--
Eb--3-3------1-1------

Pre-Chorus (This is the part you play onve before going into the chorus)
Gb-------------
Db------5---5--
Ab-------------
Eb--3-3---3----
[ Tab from: http://www.guitartabs.cc/tabs/g/green_day/geek_stink_breath_btab.html ]
Chorus		   X4			X4
Gb-------------------|--------------------
Db------8------------|-------5------------
Ab-------------------|--------------------
Eb--6-6---0h1-1-1-1--|--3-3----0h1-1-1-1--


Bridge
Gb------------------
Db------5-----------
Ab------------3-3---
Eb--3-3---1-1-------

Outro   X3
Gb--------
Db-----5--
Ab--------
Eb--3-----


This tab was created by Christian Mangs. Email me at:
-/-/-/-/-/-/-/-

Comments