Green Day - Fod Chords & Tabs

 

Fod Chords & Tabs

Green Day Chords & Tabs

Version: 9 Type: Tab 0 ratings
1 star 2 stars 3 stars 4 stars 5 stars
comments

Fod Tab

--------------------------------------------|
--------------------------------------------|
--------------------------------------------|
-7----5-------------------------------------|
-7----5-------------------------------------|
-5----3-------------------------------------|

you can figure out how many times to play each chord.


"let's nook the bridge we torched 2000 times before.."

-------------------------------------------------------|
-------------------------------------------------------|
--9-9-9----------------7-7-7-7-------------------------|
--9-9-9--5-5-5-5-5-5---7-7-7-7----7-7-7-7-7-7----------|
--7-7-7--5-5-5-5-5-5---5-5-5-5----7-7-7-7-7-7----------|
---------3-3-3-3-3-3--------------5-5-5-5-5-5----------|


then repeat this part when they say "stuck down in a rut..."

[ Tab from: http://www.guitartabs.cc/tabs/g/green_day/fod_tab_ver_9.html ]
--------------------------------------------|
--------------------------------------------|
--------------------------------------------|
-7----5-------------------------------------|
-7----5-------------------------------------|
-5----3-------------------------------------|

you can figure out how many times to play each chord.


then go back to playing this..

-------------------------------------------------------|
-------------------------------------------------------|
--9-9-9----------------7-7-7-7-------------------------|
--9-9-9--5-5-5-5-5-5---7-7-7-7----7-7-7-7-7-7----------|
--7-7-7--5-5-5-5-5-5---5-5-5-5----7-7-7-7-7-7----------|
---------3-3-3-3-3-3--------------5-5-5-5-5-5----------|

this is the intro and some more but i don't know the rest of the song.

this is pretty accurate.
Comments