Green Day - Fod Chords & Tabs

 

Fod Chords & Tabs

Green Day Chords & Tabs

Version: 8 Type: Tab 0 ratings
1 star 2 stars 3 stars 4 stars 5 stars
comments

Fod Tab

   
www.Ultimate-Guitar.Com

Greenday
F.O.D
by:Acid-Joe

Tunned Eadgbe

Verse (part 1) 
|-------------------|
|-------------------|
|-------------------|
|--6-6-6-6-6-6-6----| repeat as many times you have too
|--6-6-6-6-6-6-6----| 
|--4-4-4-4-4-4-4----|
(somethings on my mind, its been so for some time)

(part 2)
|-------------------|
|-------------------|
|-------------------|
|--4-4-4-4-4-4-4----| 
|--4-4-4-4-4-4-4----|
|--2-2-2-2-2-2-2----|
(its time im on to you)
reapeat Verse. part 1,part 2.

Chorus
|---------------------------------------|
|---------------------------------------|
|--8-8-8-------6-6-6--------------------|
|--8-8-8-5-5-5-6-6-6-6-6-6--------------|
|--6-6-6-5-5-5-4-4-4-6-6-6--------------|
|--------2-2-2-------4-4-4--------------|
(lets nuke the bridge we torched two thousand times before)
[ Tab from: http://www.guitartabs.cc/tabs/g/green_day/fod_tab_ver_8.html ]
Chorus
|----------------------------------|
|----------------------------------|
|--8-8-8-------6-6-6-6-6-6---------|
|--8-8-8-4-4-4-6-6-6-6-6-6---------|
|--6-6-6-4-4-4-4-4-4-4-4-4---------|
|--------2-2-2---------------------|

(This time we'll blast it all to hell)

Repeat verse part 1 and 2. then play this.

|-----------------------|
|-----------------------|
|-6-6-6-6-6-6-6-6-6-6-6-|
|-6-6-6-6-6-6-6-6-6-6-6-|
|-4-4-4-4-4-4-4-4-4-4-4-|
|-----------------------|

|------------------------------------------------|
|------------------------------------------------|
|--6/5-5-------6/5-5-----------------------------|
|--6/3-5-6-6-6-6/5-5-4-4-4-----------------------|
|--4/3-3-6-6-6-4/3-3-4-4-4-----------------------|
|--------4-4-4-------2-2-2-----------------------|
(your just a fuck......)

repeat chorus then reapeat interlude and end with
4
4
2

belive me this is 100% right. i wouldent post it if i diddnt know it.
Comments