Green Day - Favorite Son Chords & Tabs

 

Favorite Son Chords & Tabs

Green Day Chords & Tabs

Version: 1 Type: Bass Tab 0 ratings
1 star 2 stars 3 stars 4 stars 5 stars
comments

Favorite Son Bass Tab

Here it is. The First Bass Tab For This song...w00t...i hope you enjoy it.
it's pretty easy...pretty easy to learn and kinda fun to play...play along
with the song it's not really fun playing it by yourself..unless your an
idiot...anyways here it is...enjoy!

Standard tuning (EADG)

Intro/Verse
G------------------------------------------| 
D-------------------0h444444444444---------| 
A------------------------------------------|
E--44-444-444-444--------------------------|

Chorus
G-----------------------------|
D-----------------------------|
A---------33333------33333----|
E--55-33-------55-33----------|
[ Tab from: http://www.guitartabs.cc/tabs/g/green_day/favorite_son_btab.html ]
Bridge
G-------------------------------------------------------|
D-555555555555-777777777777-555555555555-777777777777---|
A-------------------------------------------------------|
E-------------------------------------------------------|

G------------------|
D--999999999999----|
A------------------|
E------------------|

Bridge 2
G----------------------------------------|
D----------------------------------------|this 2x
A-----------------55777777777777777------|
E-55-555-555-555-------------------------|

G---------------------------------------|
D---------------------------------------|
A--------------666666666688-------------|
E-5555555555555-------------------------|

ok, here's the structure:
Intro 2x
Chorus 1x
Verse 2x
Chorus 1x
Bridge 1x
Verse 2x
Chorus 1x
Bridge 1x
Bridge 2 1x
Verse 2x
Chorus 1x

That's it. It May be a little off but it's pretty close. 
enjoy and please rate..it took me a whole hour to learn!!!!
Comments