Green Day - Fashion Victim Chords & Tabs

 

Fashion Victim Chords & Tabs

Green Day Chords & Tabs

Version: 4 Type: Tab 0 ratings
1 star 2 stars 3 stars 4 stars 5 stars
comments

Fashion Victim Tab

Green Day Fashion Victim
From the album warning
Track 4
Tabbed by Liam
Email: guitar_rocker_47@hotmail.com
Tuning: Standard
x = scratch

Intro
e|---------------------------------------------------------------|
B|---------------------------------------------------------------|
G|---------------------------------------------------------------|
D|-7-7--x-x-x----------------------------------------------------| x8
A|-7-7--x-x-x----------------------------------------------------|
E|-5-5--x-x-x----------------------------------------------------|

Verse
|---------------------------------------------------------------------------------|
|---------------------------------------------------------------------------------|
|-----------6-6-x-x-x---------------------7-7-x-x-x-6-6-x-x-x---------------------|
|-7-7-x-x-x-6-6-x-x-x-4-4-x-x-x-4-4-x-x-x-7-7-x-x-x-6-6-x-x-x-2-2-x-x-x-2-2-x-x-x-|
|-7-7-x-x-x-4-4-x-x-x-4-4-x-x-x-4-4-x-x-x-5-5-x-x-x-4-4-x-x-x-2-2-x-x-x-2-2-x-x-x-|
|-5-5-x-x-x-----------2-2-x-x-x-2-2-x-x-x---------------------0-0-x-x-x-0-0-x-x-x-|

|---------------------------------------------------------------------------------|
|---------------------------------------------------------------------------------|
|-----------6-6-x-x-x---------------------7-7-x-x-x-----------9-9-9-9-9-9-9-9-9-9-|
|-7-7-x-x-x-6-6-x-x-x-4-4-x-x-x-4-4-x-x-x-7-7-x-x-x-7-7-x-x-x-9-9-9-9-9-9-9-9-9-9-|
|-7-7-x-x-x-4-4-x-x-x-4-4-x-x-x-4-4-x-x-x-5-5-x-x-x-7-7-x-x-x-7-7-7-7-7-7-7-7-7-7-|
|-5-5-x-x-x-----------2-2-x-x-x-2-2-x-x-x-----------5-5-x-x-x---------------------|
[ Tab from: http://www.guitartabs.cc/tabs/g/green_day/fashion_victim_tab_ver_4.html ]
|---------------------------------------------------------------------------------|
|---------------------------------------------------------------------------------|
|-----------6-6-x-x-x---------------------7-7-x-x-x-6-6-x-x-x---------------------|
|-7-7-x-x-x-6-6-x-x-x-4-4-x-x-x-4-4-x-x-x-7-7-x-x-x-6-6-x-x-x-2-2-x-x-x-2-2-x-x-x-|
|-7-7-x-x-x-4-4-x-x-x-4-4-x-x-x-4-4-x-x-x-5-5-x-x-x-4-4-x-x-x-2-2-x-x-x-2-2-x-x-x-|
|-5-5-x-x-x-----------2-2-x-x-x-2-2-x-x-x---------------------0-0-x-x-x-0-0-x-x-x-|

|---------------------------------------------------------------------------------|
|---------------------------------------------------------------------------------|
|-----------6-6-x-x-x---------------------7-7-x-x-x-----------9-9-9-9-9-9-9-9-9-9-|
|-7-7-x-x-x-6-6-x-x-x-4-4-x-x-x-4-4-x-x-x-7-7-x-x-x-7-7-x-x-x-9-9-9-9-9-9-9-9-9-9-|
|-7-7-x-x-x-4-4-x-x-x-4-4-x-x-x-4-4-x-x-x-5-5-x-x-x-7-7-x-x-x-7-7-7-7-7-7-7-7-7-7-|
|-5-5-x-x-x-----------2-2-x-x-x-2-2-x-x-x-----------5-5-x-x-x---------------------|

Chorus
|---------------------------------------------------------------------------------|
|---------------------------------------------------------------------------------|
|-4-4-4-4-4-4-4-4-4-4-4-4---------------------------------------------------------|
|-4-4-4-4-4-4-4-4-4-4-4-4-5-5-5-5-5-5-5-5-5-5-5-2-2-2-2-2-2-2-2-2-2-2-------------|
|-2-2-2-2-2-2-2-2-2-2-2-2-5-5-5-5-5-5-5-5-5-5-5-2-2-2-2-2-2-2-2-2-2-2-------------|
|-------------------------3-3-3-3-3-3-3-3-3-3-3-0-0-0-0-0-0-0-0-0-0-0-------------|

Bridge
|------------------------------------------------|
|------------------------------------------------|
|------------------------------------------------|
|-7-7-7-5-5-5-4-4-4-2-2-2--7-7-7-5-5-5-4-4-4-2---|
|-7-7-7-5-5-5-4-4-4-2-2-2--7-7-7-5-5-5-4-4-4-2---|
|-5-5-5-3-3-3-2-2-2-0-0-0--5-5-5-3-3-3-2-2-2-0-4-|

Outro
|-----------|
|-----------|
|---7---7---|
|-7-7-7-7-7-|
|-7-5-7-5-7-|
|-5---5---5-|


Order

Intro   (One Guitar)
Intro   (Full Band)
Verse
Intro
Verse 2
Chorus
Bridge
Intro
Verse 3
Chorus 2
Bridge 
Bridge
Intro  
Intro
Outro
Comments