Green Day - Fashion Victim Chords & Tabs

 

Fashion Victim Chords & Tabs

Green Day Chords & Tabs

Version: 3 Type: Tab 0 ratings
1 star 2 stars 3 stars 4 stars 5 stars
comments

Fashion Victim Tab

Group: Green Day
Album: Warning
Title: Fashion victim
Standard Tuning

intro / post verse
     
|----------------------|
|----------------------|
|----------------------|
|-7-7-x-x-x--7-7-x-x-x-| x10
|-7-7-x-x-x--7-7-x-x-x-|
|-5-5-x-x-x--5-5-x-x-x-|

verse / bridge

|---------------------------------------------------------------------------------|
|---------------------------------------------------------------------------------|
|-----------6-6-x-x-x---------------------7-7-x-x-x-6-6-x-x-x---------------------|
|-7-7-x-x-x-6-6-x-x-x-4-4-x-x-x-4-4-x-x-x-7-7-x-x-x-6-6-x-x-x-2-2-x-x-x-2-2-x-x-x-|
|-7-7-x-x-x-4-4-x-x-x-4-4-x-x-x-4-4-x-x-x-5-5-x-x-x-4-4-x-x-x-2-2-x-x-x-2-2-x-x-x-|
|-5-5-x-x-x-----------2-2-x-x-x-2-2-x-x-x---------------------0-0-x-x-x-0-0-x-x-x-|
[ Tab from: http://www.guitartabs.cc/tabs/g/green_day/fashion_victim_tab_ver_3.html ]
|---------------------------------------------------------------------------------|
|---------------------------------------------------------------------------------|
|-----------6-6-x-x-x---------------------7-7-x-x-x-----------9-9-9-9-9-9-9-9-9-9-|
|-7-7-x-x-x-6-6-x-x-x-4-4-x-x-x-4-4-x-x-x-7-7-x-x-x-7-7-x-x-x-9-9-9-9-9-9-9-9-9-9-|
|-7-7-x-x-x-4-4-x-x-x-4-4-x-x-x-4-4-x-x-x-5-5-x-x-x-7-7-x-x-x-7-7-7-7-7-7-7-7-7-7-|
|-5-5-x-x-x-----------2-2-x-x-x-2-2-x-x-x-----------5-5-x-x-x---------------------|

chorus

|---------------------------------------------------------------------------------|
|---------------------------------------------------------------------------------|
|-4-4-4-4-4-4-4-4-4-4-4-4---------------------------------------------------------|
|-4-4-4-4-4-4-4-4-4-4-4-4-5-5-5-5-5-5-5-5-5-5-5-2-2-2-2-2-2-2-2-2-2-2-7-7-7-5-5-5-|
|-2-2-2-2-2-2-2-2-2-2-2-2-5-5-5-5-5-5-5-5-5-5-5-2-2-2-2-2-2-2-2-2-2-2-7-7-7-5-5-5-|
|-------------------------3-3-3-3-3-3-3-3-3-3-3-0-0-0-0-0-0-0-0-0-0-0-5-5-5-3-3-3-|

|------------------------------------|
|------------------------------------|
|------------------------------------|
|-4-4-4-2-2-2--7-7-7-5-5-5-4-4-4-2---|
|-4-4-4-2-2-2--7-7-7-5-5-5-4-4-4-2---|
|-2-2-2-0-0-0--5-5-5-3-3-3-2-2-2-0-4-|

outro

|-----------|
|-----------|
|---7---7---|
|-7-7-7-7-7-|
|-7-5-7-5-7-|
|-5---5---5-|
Comments