Green Day - Fashion Victim Chords & Tabs

 

Fashion Victim Chords & Tabs

Green Day Chords & Tabs

Version: 2 Type: Tab 0 ratings
1 star 2 stars 3 stars 4 stars 5 stars
comments

Fashion Victim Tab

GREEN DAY : FASHION VICTIM (TRACK 4 ON WARNING)

Beginning Part
E|------------------|
B|------------------|
G|-----------------o|
D|-7-7-xxx-7-7-xxx-o| Repeat for awhile
A|-7-7-xxx-7-7-xxx--|
E|-5-5-xxx-5-5-xxx--|
[ Tab from: http://www.guitartabs.cc/tabs/g/green_day/fashion_victim_tab_ver_2.html ]
Main Riff
E|---------------------------------|---------------------------------
B|---------------------------------|---------------------------------
G|---------6-6-xxx-----------------|-7-7-xxx-6-6-xxx-----------------
D|-7-7-xxx-6-6-xxx-4-4-xxx-4-4-xxx-|-7-7-xxx-6-6-xxx-2-2-xxx-2-2-xxx-
A|-7-7-xxx-4-4-xxx-4-4-xxx-4-4-xxx-|-5-5-xxx-4-4-xxx-2-2-xxx-2-2-xxx-
E|-5-5-xxx---------2-2-xxx-2-2-xxx-|-----------------0-0-xxx-0-0-xxx-

E|---------------------------------|---------------------------------
B|---------------------------------|---------------------------------
G|---------6-6-xxx-----------------|-7-7-xxx-6-6-xxx-9-9-999-9-9-999-
D|-7-7-xxx-6-6-xxx-4-4-xxx-4-4-xxx-|-7-7-xxx-6-6-xxx-9-9-999-9-9-999-
A|-7-7-xxx-4-4-xxx-4-4-xxx-4-4-xxx-|-5-5-xxx-4-4-xxx-7-7-777-7-7-777-
E|-5-5-xxx---------2-2-xxx-2-2-xxx-|---------------------------------
Comments