Green Day - F O D Chords & Tabs

 

F O D Chords & Tabs

Green Day Chords & Tabs

Version: 1 Type: Tab 0 ratings
1 star 2 stars 3 stars 4 stars 5 stars
comments

F O D Tab

   
intro\verse
     p.m------------     p.m.-----------     p.m.-     p.m.-
e-----------------------------------------------------------
b-----------------------------------------------------------
g-----------------------------------------------------------
d-7--7-7-7--7--7-7-7--7--7-7-7--7--7-7-7--5--5-5-5--7--7-7-7
a-7--7-7-7--7--7-7-7--7--7-7-7--7--7-7-7--5--5-5-5--7--7-7-7
E-5--5-5-5--5--5-5-5--5--5-5-5--5--5-5-5--3--3-3-3--5--5-5-5
play twice on clean electric
[ Tab from: http://www.guitartabs.cc/tabs/g/green_day/f_o_d_tab.html ]
chorus
e----------------------------------------
b----------------------------------------
g-9-9-9-9-9-----------7-7-7-7-7----------
d-9-9-9-9-9-----------7-7-7-7-7----------
a-7-7-7-7-7-5-5-5-5-5-5-5-5-5-5-7-7-7-7-7
E-----------3-3-3-3-3-----------5-5-5-5-5
play three times
play verse twice
after verse distortion kicks on
and plays ending
e-----------
b-----------
g9\7---7\5--
d9\7-7-7\5-5
a7\5-7-5\3-5
E----5-----3
play twice
play chorus three times
play ending four times
Comments