Green Day - F O D Chords & Tabs


F O D Chords & Tabs

Green Day Chords & Tabs

Version: 1 Type: Bass Tab 0 ratings
1 star 2 stars 3 stars 4 stars 5 stars

F O D Bass Tab

by Green Day
off the album Dookie

Bass tacit for almost all of the piece, but after the second verse Billie 
Joe sings: "...My belly's aching now to say...say...."
Then the bass comes in and guitar finally puts on its distortion.

Mike Dirnt uses a pick for this song as always, and as always has that 
characteristic Green Day snappy/high strung feel if you want to change 
your tone controls to sound that way.


G: ----------------------------------------------
D: ----------------------------------------------
A: ---5--4--------5--4---------------------------
E: ----------5-------------3---------------------
[ Tab from: ]
Chorus:  ("...I've had this burning")
[Holds each of these for several times]

G: ----------------------------------------------
D: --2----------------------2--------------------
A: -------------5-------------------------5------
E: -------3-----------5-----------3--------------

Ending:  ("...Good nighhhhhhhht")
[Plays verse again then holds the]

G: ----------------------------------------------
D: ----------------------------------------------
A: ----------------------------------------------
E: ----3-----------------------------------------

Any comments/suggestions/realisations that I'm your long-lost twin from when 
your dad slept with your REAL mom from Algeria and after an epic struggle the 
two of us were separated, please send to:

Tabbed by Lord Whitey the Formidable