Green Day - Extraordinary Girl Chords & Tabs

 

Extraordinary Girl Chords & Tabs

Green Day Chords & Tabs

Version: 3 Type: Tab 0 ratings
1 star 2 stars 3 stars 4 stars 5 stars
comments

Extraordinary Girl Tab

   
Hey this my second tab here! Those chords are the chords they use in the song. I hope
you guys like it. if you have any question's mail:
anders_sm@hotmail.com
Chords they use:
A: x02220
G: 320003
F#:xx4322
Intro:
(played very faintly in background)

E---------------------------|                       E-----------|
B---------------------------|                       B-----------|
G--9~~-7-9-10-10~~-12-10-9--|   (play 2x,then):     G--7h9p6~~--|
D---------------------------|                       D-----------|
A---------------------------|                       A-----------|
E---------------------------|                       E-----------|



   A        D               A        D
E----------------------------------------------------|
B----------------------------------------------------|
G--9-9--7-9-10-10~~--12-10--9-9--7-9-10-10~~--12-10--|
D----------------------------------------------------|
A----------------------------------------------------|
E----------------------------------------------------|




Verse 1:

A        D             A 
She's an Extraordinary girl 

A         D      A
in an ordinary world 

        G                 A
And she can't seem to get away 


E-------------------------|
B-------------------------|
G--6-6-4-6-6-4-6-7-6-4-6--|
D-------------------------|
A-------------------------|
E-------------------------|



Verse 2:


   Guitar 1:

    A        D               A        D               A        G       A 
E|--------------------------------------------------------------------------------------------|
B|--------------------------------------------------------------------------------------------|
G|-----------7------------------------7-------------------------------------------------------|
D|--7--------7---------------7--------7---------------7--------5-------7----------------------|
A|--7--------5---------------7--------5---------------7--------5-------7----------------------|
E|--5------------------------5------------------------5--------3-------5----------------------|
 |                                                                                            |
 |                                                                                            |
 | Guitar 2:                                                                                  |
 |                                                                                            |
E|--------------------------------------------------------------------------------------------|
B|--------------------------------------------------------------------------------------------|
G|--9-9--7-9-10-10~~--12-10--9-9--7-9-10-10~~--12-10--9-9--7-9-7-7-9-7-6-6-4-6-6-4-6-7-6-4-6--|
D|--------------------------------------------------------------------------------------------|
A|--------------------------------------------------------------------------------------------|
E|--------------------------------------------------------------------------------------------|
   He Lacks the courage in his mind  Like a child left behind  Like a pet left in the rain 



Chorus:

F#           D       E D
She's all alone again 

F#            D         E  D
Wiping the tears from her eyes 

D              E
Some days she feels like dying 

D           Dm
She gets so sick of crying 


   A        D               A        D
E----------------------------------------------------|
B----------------------------------------------------|
G--9-9--7-9-10-10~~--12-10--9-9--7-9-10-10~~--12-10--|
D----------------------------------------------------|
A----------------------------------------------------|
E----------------------------------------------------|



Verse 3:

A             D           A 
She sees the mirror of herself 

A          D         A
And image she wants to sell

     G                A
To anyone willing to buy 


E-------------------------|
B-------------------------|
G--6-6-4-6-6-4-6-7-6-4-6--|
D-------------------------|
A-------------------------|
E-------------------------|



Verse 4:


   Guitar 1:
[ Tab from: http://www.guitartabs.cc/tabs/g/green_day/extraordinary_girl_tab_ver_3.html ]
    A        D               A        D               A        G       A 
E|--------------------------------------------------------------------------------------------|
B|--------------------------------------------------------------------------------------------|
G|-----------7------------------------7-------------------------------------------------------|
D|--7--------7---------------7--------7---------------7--------5-------7----------------------|
A|--7--------5---------------7--------5---------------7--------5-------7----------------------|
E|--5------------------------5------------------------5--------3-------5----------------------|
 |                                                                                            |
 |                                                                                            |
 | Guitar 2:                                                                                  |
 |                                                                                            |
E|--------------------------------------------------------------------------------------------|
B|--------------------------------------------------------------------------------------------|
G|--9-9--7-9-10-10~~--12-10--9-9--7-9-10-10~~--12-10--9-9--7-9-7-7-9-7-6-6-4-6-6-4-6-7-6-4-6--|
D|--------------------------------------------------------------------------------------------|
A|--------------------------------------------------------------------------------------------|
E|--------------------------------------------------------------------------------------------|
   He steals the image in her kiss From her heart's apocalypse From the one called whatsername



Chorus:

F#           D       E D
She's all alone again 

F#               E       D     E  D
Wiping the tears from her eyes 

D              E
Some days she feels like dying 

D           Dm
She gets so sick of crying 



Solo:


   Guitar 1:

    A        D               A        D               A        G       A 
E|--------------------------------------------------------------------------------------------|
B|--------------------------------------------------------------------------------------------|
G|-----------7------------------------7-------------------------------------------------------|
D|--7--------7---------------7--------7---------------7--------5-------7----------------------|
A|--7--------5---------------7--------5---------------7--------5-------7----------------------|
E|--5------------------------5------------------------5--------3-------5----------------------|
 |                                                                                            |
 |                                                                                            |
 | Guitar 2:                                                                                  |
 |                                                                                            |
E|--------------------------------------------------------------------------------------------|
B|--------------------------------------------------------------------------------------------|
G|--9-9--7-9-10-10~~--12-10--9-9--7-9-10-10~~--12-10--9-9--7-9-7-7-9-7-6-6-4-6-6-4-6-7-6-4-6--|
D|--------------------------------------------------------------------------------------------|
A|--------------------------------------------------------------------------------------------|
E|--------------------------------------------------------------------------------------------|



   Guitar 1:

    A        D               A        D               A        G       A 
E|--------------------------------------------------------------------------------------------|
B|--------------------------------------------------------------------------------------------|
G|-----------7------------------------7-------------------------------------------------------|
D|--7--------7---------------7--------7---------------7--------5-------7----------------------|
A|--7--------5---------------7--------5---------------7--------5-------7----------------------|
E|--5------------------------5------------------------5--------3-------5----------------------|
 |                                                                                            |
 |                                                                                            |
 | Guitar 2:                                                                                  |
 |                                                                                            |
E|--------------------------------------------------------------------------------------------|
B|--------------------------------------------------------------------------------------------|
G|--9-9--7-9-10-10~~--12-10--9-9--7-9-10-10~~--12-10--9-9--7-9-7-7-9-7-6-6-4-6-6-4-6-7-6-4-6--|
D|--------------------------------------------------------------------------------------------|
A|--------------------------------------------------------------------------------------------|
E|--------------------------------------------------------------------------------------------|



Chorus:

F#           D       E D
She's all alone again 

F#                E       D     E  D
Wiping the tears from her eyes 

D              E
Some days she feels like dying 

D              E
Some days it's not worth trying

D                E
Now that they've pulled the fun in

D           Dm
She gets so sick of crying



Outro:


  Guitar 1:

    A        D               A        D               
E|----------------------------------------------------| |
B|----------------------------------------------------| |
G|-----------7------------------------7---------------|o|
D|--7--------7---------------7--------7---------------|o|
A|--7--------5---------------7--------5---------------| |
E|--5------------------------5------------------------| |
 |                                                    | |
 |                                                    | |  (play 2x)
 | Guitar 2:                                          | |
 |                                                    | |
E|----------------------------------------------------| |
B|----------------------------------------------------| |
G|--9-9--7-9-10-10~~--12-10--9-9--7-9-10-10~~--12-10--|o|
D|----------------------------------------------------|o|
A|----------------------------------------------------| |
E|----------------------------------------------------| |
   She's An Extraordinary girl   An Extraordinary girl    
   An Extraordinary girl  An Extraordinary girl




   A
E---------------------------|                       E-----------|
B---------------------------|                       B-----------|
G--9~~-7-9-10-10~~-12-10-9--|   (play 2x,then):     G--7h9p6~~--|
D---------------------------|                       D-----------|
A---------------------------|                       A-----------|
E---------------------------|                       E-----------|
Comments