Green Day - Extraordinary Girl Chords & Tabs

 

Extraordinary Girl Chords & Tabs

Green Day Chords & Tabs

Version: 2 Type: Tab 0 ratings
1 star 2 stars 3 stars 4 stars 5 stars
comments

Extraordinary Girl Tab

   
-------------------------------------------------------------------------------
			     Extraordinary Girl - Green Day
-------------------------------------------------------------------------------
Tabbed by: Roumen Imaev
Email: roumen_imaev@hotmail.com

Track 9  from the American Idiot album,  this is pretty cool song, rate this please, thanks

| /  slide up
| \  slide down
| h  hammer-on
| p  pull-off
| ~  vibrato
| +  harmonic
| x  Mute note

Tuning: Standard (E A D G B E)


Intro (after the drums around 0:35)

     A        Dm

e|---0--------1--------0--------1--------------------------------------------|
B|---2--------3--------2--------3--------------------------------------------|
G|---2--------2--------2--------2--------------------------------------------|
D|---2--------0--------2--------0--------------------------------------------|
A|---0-----------------0-----------------------------------------------------|
E|---------------------------------------------------------------------------|

second guitar plays this

e|---------------------------------------------------------------------------|
B|------------6~---8-6----------6~---8-6-------------------------------------|
G|---9~---7-9----------9~---7-9----------9~~---------------------------------|
D|---------------------------------------------------------------------------|
A|---------------------------------------------------------------------------|
E|---------------------------------------------------------------------------|
					 ^ verse starts here

Verse

     A        Dm       A        Dm       A        G         A	     A

e|---0--------1--------0--------1--------0--------3---------0--------0-----------|
B|---2--------3--------2--------3--------2--------3---------2--------2-----------|
G|---2--------2--------2--------2--------2--------0---------2--------2-----------|
D|---2--------0--------2--------0--------2--------0---------2--------2-----------|  x2
A|---0-----------------0-----------------0--------2---------0--------0-----------|
E|------------------------------------------------3------------------------------|


second guitar plays this the second time except the last bit which is also played the 
time
[ Tab from: http://www.guitartabs.cc/tabs/g/green_day/extraordinary_girl_tab_ver_2.html ]
e|-------------------------------------------------------------------------------|
B|------------6~---8-6----------6~---8-6-----------------------------------------|
G|---9~---7-9----------9~---7-9----------9~~--7-9-7~----9-7-6--4-6--4-6-7-6-4-6--|
D|-------------------------------------------------------------------------------|
A|-------------------------------------------------------------------------------|
E|-------------------------------------------------------------------------------|


Chorus  (timing is a bit difficult)

play first part twice	                immediately mute last note after playing it
e|------------------------------------|--------------------------------------|
B|------------------------------------|--------------------------------------|
G|-------------------7--7-7---7-9-9---|---7-7-7-7-7--9-9-9-9-9--7~------7x---|
D|------4--4---4-2-2-7--7-7---7-9-9---|---7-7-7-7-7--9-9-9-9-9--7~------7x---|
A|------4--4---4-2-2-5--5-5---5-7-7---|---5-5-5-5-5--7-7-7-7-7--5~------5x---|
E|--\\--2--2---2-0-0------------------|--------------------------------------|


Outro   (basically 4 times  A - Dm  and end on A)

e|---0--------1--------0--------1--------0--------1---------0--------1--------0~---|
B|---2--------3--------2--------3--------2--------3---------2--------3--------2~---|
G|---2--------2--------2--------2--------2--------2---------2--------2--------2~---|
D|---2--------0--------2--------0--------2--------0---------2--------0--------2~---|
A|---0-----------------0-----------------0------------------0-----------------0~---|
E|---------------------------------------------------------------------------------|

at the very end the riff from the intro is played kind of faded


-------------------

Song Order

Intro x2
Verse x4
Chorus
Verse x6
Chorus
Verse x2
Chorus (last part extended)
Outro

----------------------------

Lyrics

She's an extraordinary girl
In an ordinary world
And she can't seem to get away
He lacks the courage in his mind
like a child left behind
like a pet left in the rain

she's all alone again
wiping the tears from her eyes
some days he feels like dying
she gets so sick of crying

she sees the mirror of herself
an image she wants to tell
to anyone willing to buy
he steals the image in her kiss
from her heart's apocalypse
from the one called whatsername

she's all alone again
wiping the tears from her eyes
some days he feels like dying
some days it's not worth trying
now that they both are finding
she gets so sick of crying


===============================================================================
Comments