Green Day - Extraordinary Girl Chords & Tabs

 

Extraordinary Girl Chords & Tabs

Green Day Chords & Tabs

Version: 1 Type: Bass Tab 0 ratings
1 star 2 stars 3 stars 4 stars 5 stars
comments

Extraordinary Girl Bass Tab

Intro:
G|--------------------------------|
D|-7-7-7-7---------7-7-7-7--------|
A|---------5-5-5-5--------5-5-5-5-|
E|--------------------------------|

Verse: X2
G|--------------------------------------------------------------|
D|-7-7-7-7--------7-7-7-7---------7-7-7-7-5-5-5-5---------------|
A|--------5-5-5-5---------5-5-5-5-------------------------------|
E|------------------------------------------------5-5-5-5-5-5-5-|

Chorus:
G|------------------------------------------------------------------------|
D|------------------------------------------------------------------------|
A|-----------------5-5-5-7-7-7-9-9-9-7-7-5-5-5-5-7-7-5-5-5-5-7-7-7-7-5--5-|
E|-5\2-2-2-2-2-0-0--------------------------------------------------------|

Post Chorus/Pre Verse:
G|--------------------------------|
D|-7-7-7-7---------7-7-7-7--------|
A|---------5-5-5-5--------5-5-5-5-|
E|--------------------------------|

Verse: X2
G|--------------------------------------------------------------|
D|-7-7-7-7--------7-7-7-7---------7-7-7-7-5-5-5-5---------------|
A|--------5-5-5-5---------5-5-5-5-------------------------------|
E|------------------------------------------------5-5-5-5-5-5-5-|
[ Tab from: http://www.guitartabs.cc/tabs/g/green_day/extraordinary_girl_btab.html ]
Chorus:
G|------------------------------------------------------------------------|
D|------------------------------------------------------------------------|
A|-----------------5-5-5-7-7-7-9-9-9-7-7-5-5-5-5-7-7-5-5-5-5-7-7-7-7-5--5-|
E|-5\2-2-2-2-2-0-0--------------------------------------------------------|

Verse: X2
G|--------------------------------------------------------------|
D|-7-7-7-7--------7-7-7-7---------7-7-7-7-5-5-5-5---------------|
A|--------5-5-5-5---------5-5-5-5-------------------------------|
E|------------------------------------------------5-5-5-5-5-5-5-|

Chorus:
G|-----------------------------------|
D|-----------------------------------|
A|-----------------5-5-5-7-7-7-9-9-9-|
E|-5\2-2-2-2-2-0-0-------------------|

G|----------------------------------------------------------------------|
D|----------------------------------------------------------------------|
A|-7-7-5-5-5-5-7-7-5-5-5-5-7-7-7-7-5-5-5-5-7-7-7-7-5-5-5-5-7-7-7-7-5--5-|
E|----------------------------------------------------------------------|

Outro: X2
G|----------------------------------|
D|-7-7-7-7---------7-7-7-7--------7-|
A|---------5-5-5-5--------5-5-5-5---|
E|----------------------------------|
Comments