Green Day - Espionage Chords & Tabs

 

Espionage Chords & Tabs

Green Day Chords & Tabs

Version: 1 Type: Tab 3 ratings
1 star 2 stars 3 stars 4 stars 5 stars
comments

Espionage Tab

   
Song: Espionage
By: Green Day
Tabbed By: Derrick Barth (Dammit5001@aol.com)

This is the song from the Austin Powers soundtrack, and even though
it deosnt have words the song is awesome.

And dont forget to check out my guitar tabs site (with sound to the
tabs) http://www.eyeonrawk.homestead.com/home.html

Opening chord (played 2 or 3 more times during the song)
E|---0---|
B|---0---|
G|---1---|   It's just E major
D|---2---|
A|---2---|
E|---0---|

Riff A
E|-------------------------------------|
B|-------------------------------------|
G|-------------------------------------|
D|-------------------------------------|
A|-----------2-2---1-1-1-0---0-0-------|
E|---0-0-3-3-----3---------3-----3-2---|
[ Tab from: http://www.guitartabs.cc/tabs/g/green_day/espionage_tab.html ]
Riff B
E|-------------------------------------|
B|-------------------------------------|
G|-------------------------------------|
D|-----------2-2---1-1-1-0---0-0-------|
A|---0-0-3-3-----3---------3-----3-2---|
E|-------------------------------------|

Chorus (the whole thing)
E|---------------------------------------|
B|---------------------------------------|
G|---4-4-4-4-----------5-5-5-5-----------| X2
D|---4-4-4-4-----------5-5-5-5-----------|
A|---2-2-2-2---0-2-3---3-3-3-3---0-5-4---|
E|---------------------------------------|

Then...
E|-------------------------------------------------------------------------|
B|-------------------------------------------------------------------------|
G|---4-4-4-4---4-4---4-4-4-4-----------5-5-5-5-5-5-5-5-/-9-9-9-9-9-9-9-9---|
D|---4-4-4-4---4-4---4-4-4-4-----------5-5-5-5-5-5-5-5-/-9-9-9-9-9-9-9-9---|
A|---2-2-2-2---2-2---2-2-2-2---0-2-3---3-3-3-3-3-3-3-3-/-6-6-6-6-6-6-6-6---|
E|-------------------------------------------------------------------------|

Then just end the song on E major.



Comments