Green Day - Emenius Sleepus Chords & Tabs

 

Emenius Sleepus Chords & Tabs

Green Day Chords & Tabs

Version: 3 Type: Bass Tab 0 ratings
1 star 2 stars 3 stars 4 stars 5 stars
comments

Emenius Sleepus Bass Tab

   
Song: Emenius Sleepus
Artist: Green Day
Album: Dookie
Tabbed By: Scott Sherman
Tune: E to Eb

Verse-3x
G------------------------------------------|
D-7h9p7-----7h9p7-----7h9p7-----7h9p7------|
A------7-777-----7-777-----7-777-----9-999-|
E -----------------------------------------|

Chorus
G--------------------------------------------------|
D--------------------------------------------------|
A-7-777779-99-99997-777779-99-99997-777-779-999-99-|
E--------------------------------------------------|
[ Tab from: http://www.guitartabs.cc/tabs/g/green_day/emenius_sleepus_btab_ver_3.html ]
Main
G------------------------------------------|
D-7h9p7-----7h9p7-----7h9p7-----7h9p7------|
A------7-777-----9-999-----7-777-----9-999-|
E------------------------------------------|

THEN Play Verse-2x, Chorus, Main-2x, thenů

Bridge-3x
G-------------------998866--998899-|
D-99--99--99--99--99------99-------|
A---99--99--99--99-----------------|
E----------------------------------|

Bridge-out
G--------------------------------------|
D-99--99--99--99--7-7777-777-----------|
A---99--99--99--99----------0-0009-999-|
E--------------------------------------|

THEN Play Chorus, Main-2x ending on D-9
END
Comments or correction mail me at shermdog17@yahoo.com
Check out my band at www.geocities.com/thecause_ifanything/punk.html
Comments