Green Day - Dry Ice Chords & Tabs

 

Dry Ice Chords & Tabs

Green Day Chords & Tabs

Version: 4 Type: Tab 0 ratings
1 star 2 stars 3 stars 4 stars 5 stars
comments

Dry Ice Tab

Song: Dry Ice
Band: Greenday
Album: 1,039 / Smoothed Out Slappy Hours
Tunning: Standard
Tabbed by: simpleppl@hotmail.com

---------------------------------
| / - slide up  x - mute string |
| p - pull off  h - hammer on   |
---------------------------------

  Fig.1
e|-------------------
B|-------------------
G|---6-7------6-7-9--
D|-7-6-7-7--7-6-7-9--
A|-7-4-5-7--7-4-5-7--
E|-5-4-5-5--5-4-5-7--
                    2x

  Fig.2
e|-------|-------
B|-------|-------
G|-7-----|-7--9--
D|-7--7--|-7--9--
A|-5--7--|-5--7--
E|-5--5--|-5--7--
        3x

  Fig.3
e|-------------
B|-------------
G|----6--7-----
D|-7--6--7--7--
A|-7--4--5--7--
E|-5--4--5--5--
              2x

   Fig.4
e|------------------------
B|------------------------
G|-------7----------7--9--
D|-7--4--7----7--4--7--9--
A|-7--4--5----7--4--5--7--
E|-5--2--5----5--2--5--7--
                         2x
[ Tab from: http://www.guitartabs.cc/tabs/g/green_day/dry_ice_tab_ver_4.html ]
  Solo                    end.1                        end.2
e|-----------------------|---5-------5-----5-------5--|------------------------------
B|-----------------------|-7---7-7h8---7-7---7-7h8----|-----------------2h4p2---2h5--
G|*-2-2-2h4p2-4b6r4-2----|---------------------------*|---------2h4p2---------4------
D|*-------------------4--|---------------------------*|-2h4p2---------4--------------
A|-----------------------|----------------------------|-------4----------------------
E|-----------------------|----------------------------|------------------------------

  -------------------17/19-17/19-17--
  -17/19-19-19-17-14-----------------
  -----------------------------------
  -----------------------------------
  -----------------------------------
  -----------------------------------

  Fig.5
e|-5--2--10--12--
B|-5--2--10--12--
G|-6--2--11--13--
D|-x--x---x---x--
A|-x--x---x---x--
E|-x--x---x---x--


Fig.1      / Solo
Fig.2     /  Fig.5
Fig.3    /   Fig.1
Fig.1   /    Fig.2 - 2x
Fig.2  /     Fig.4
Fig.4 /
Comments