Green Day - Dry Ice Chords & Tabs

 

Dry Ice Chords & Tabs

Green Day Chords & Tabs

Version: 3 Type: Tab 0 ratings
1 star 2 stars 3 stars 4 stars 5 stars
comments

Dry Ice Tab

green day
dry ice
1000 hours EP
standard tuning

opening:
|----------------------------------|
|-----------------2------3-----2---|
|-2-2-----4-----2---2------2-----2-|
|-2---2-----2---2------------------|
|-0-----0-----0-0------0-----0-----|
|----------------------------------|x2

verse:                                           
|--------------------------------------------   
|-2-2-2-2-2--5-5-5-5-5--7-7-7-7-7--2-2-2-2-2-  
|-2-2-2-2-2--6-6-6-6-6--7-7-7-7-7--2-2-2-2-2-   
|-2-2-2-2-2--6-6-6-6-6--7-7-7-7-7--2-2-2-2-2-   
|-0-0-0-0-0--4-4-4-4-4--5-5-5-5-5--0-0-0-0-0-   
|--------------------------------------------   
                                                 
--------------------------------------------|   
-2-2-2-2-2--5-5-5-5-5--7-7-7-7-7--9-9-9-9-9-|   
-2-2-2-2-2--6-6-6-6-6--7-7-7-7-7--9-9-9-9-9-|   
-2-2-2-2-2--6-6-6-6-6--7-7-7-7-7--9-9-9-9-9-|
-0-0-0-0-0--4-4-4-4-4--5-5-5-5-5--7-7-7-7-7-|
--------------------------------------------|x2


Chorus:
|-------------------------------------------------------
|-7-7-7-7-7-------------7-7-7-7-7-------------7-7-7-7-7-
|-7-7-7-7-7--7-7-7-7-7--7-7-7-7-7--7-7-7-7-7--7-7-7-7-7-
|-7-7-7-7-7--7-7-7-7-7--7-7-7-7-7--7-7-7-7-7--7-7-7-7-7-
|-5-5-5-5-5--7-7-7-7-7--5-5-5-5-5--7-7-7-7-7--5-5-5-5-5-
|------------5-5-5-5-5-------------5-5-5-5-5------------

----------------------------------|
------------7-7-7-7-7--9-9-9-9-9--|
-7-7-7-7-7--7-7-7-7-7--9-9-9-9-9--|
-7-7-7-7-7--7-7-7-7-7--9-9-9-9-9--|
-7-7-7-7-7--5-5-5-5-5--7-7-7-7-7--|
-5-5-5-5-5------------------------|

fill:
|--------------------------------------------|    
|-2-2-2-2-2--5-5-5-5-5--7-7-7-7-7--2-2-2-2-2-|   
|-2-2-2-2-2--6-6-6-6-6--7-7-7-7-7--2-2-2-2-2-|   
|-2-2-2-2-2--6-6-6-6-6--7-7-7-7-7--2-2-2-2-2-|   
|-0-0-0-0-0--4-4-4-4-4--5-5-5-5-5--0-0-0-0-0-|   
|--------------------------------------------|x2

verse x2

chorus x2

bridge
|----------------------------0-0-0-0-0-0-0-0-0-0-0-0-0-0-
|-2-2-2-2-2------------------3-3-3-3-3-3-3-3-3-3-3-3-3-3-
|-2-2-2-2-2------------------2-2-2-2-2-2-2-2-2-2-2-2-2-2-
|-2-2-2-2-2--4-4-4-4-4-4-4-4-0-0-0-0-0-0-0-0-0-0-0-0-0-0-
|-0-0-0-0-0--4-4-4-4-4-4-4-4-----------------------------
|------------2-2-2-2-2-2-2-2-----------------------------
[ Tab from: http://www.guitartabs.cc/tabs/g/green_day/dry_ice_tab_ver_3.html ]
----------------------------0-0-0-0-0------------------|
-2-2-2-2-2------------------3-3-3-3-3------------------|
-2-2-2-2-2------------------2-2-2-2-2-1-1-1-1-1-1-1-1--|
-2-2-2-2-2--4-4-4-4-4-4-4-4-0-0-0-0-0-2-2-2-2-2-2-2-2--|
-0-0-0-0-0--4-4-4-4-4-4-4-4-----------2-2-2-2-2-2-2-2--|
------------2-2-2-2-2-2-2-2-----------0-0-0-0-0-0-0-0--|x2

solo:
|------------------------------5-----5-----5-----5-----
|------------------------4-5/7---7-8---8-7---7-8---8-8-
|-2-2-2-2-2-4-4b-2-2-2-2-------------------------------
|------------------------------------------------------
|------------------------------------------------------
|------------------------------------------------------

---------------------------------------------------
---------------------------------------------------
-2-2-2-2-2-4-2-4b-4-2-----------------2---2h4p2----
----------------------4-4-2-4p2---2-4---4-------4--
--------------------------------4------------------
---------------------------------------------------


--------2----------------------14-17b-17-14-----14-14-
------2----------14-17b-17b-17--------------17b-------
-2-4b-----4b/16b--------------------------------------
------------------------------------------------------
------------------------------------------------------
------------------------------------------------------
             |-----------harmonic-------------------->

-17-16-14---------------------------------------
----------17-15-14------------------------------
-------------------16-14-14-14-16p14-14-14-16b--
------------------------------------------------
------------------------------------------------
------------------------------------------------
<----------------------harmonic---------------->
 
-14---------------5---5-5-5-5---2-----2---------
-14-14-----14\5-5---5---5-5-5\2---2-----2-------
-------16b--------------------------3-----3/11--
------------------------------------------------
------------------------------------------------
------------------------------------------------
<--harmonic--| |-hold all possible------------->

-10--------10-------------12-------12--------|
----10--------10-------------12-------12-----|
-------11--------11-11/13-------13-------13\-|
---------------------------------------------|
---------------------------------------------|
---------------------------------------------|
<-------------hold all possible--------------|

opening x2

verse x2

chorus x2

bridge x2

                                                 
Comments