Green Day - Dont Wanna Fall In Love Chords & Tabs

 

Dont Wanna Fall In Love Chords & Tabs

Green Day Chords & Tabs

Version: 2 Type: Tab 0 ratings
1 star 2 stars 3 stars 4 stars 5 stars
comments

Dont Wanna Fall In Love Tab

   
This is 110% correct, if this is wrong may God strike me dead!
Tabbed by:Matt
       D#      A#      B#
e|------6---------------------------------------------|
B|------6---------------------------------------------|
G|------8------5-------7------------------------------|
D|------8------6-------8------------------------------|
A|------6------6-------8------------------------------|
E|-------------4-------6------------------------------|

Intro: Start with D# until verse

Verse:D# throughout
Don't want to have you hanging, around me like a leech.
D#
I think you're just the problem, so stay the hell away from me
because I don't believe in you.

Chorus:
A#                                 D#
I wanna sit here all my life alone.
B#                      A#
This may sound a little rough don't wanna fall in love.(Intro)

Verse 2: Play same as verse 1.
Don't need security, I ain't no dog without a bone.
Don't have no time for love, so stay the fuck away from me because
I don't believe in you

(Chorus)
[ Tab from: http://www.guitartabs.cc/tabs/g/green_day/dont_wanna_fall_in_love_tab_ver_2.html ]
Riff:
e|-----------------------------------------------------------------------------|
B|-----------------------------------------------------------------------------|
G|-----------------------------------------------------------------------------|
D|-88881088-----888108--8--88881088----88888108--88888108--8-------------------|
A|---------1010-------10-----------1010--------10--------10--------------------|
E|-----------------------------------------------------------------------------|
Riff continues
e|----------------15--14--13--11-----------------------------------------------|
B|-------76---------------------(single strumming)-----------------------------|
G|-----8---8----15--14--13--12-------------------------------------------------|
D|-6610-----108----------------------------------------------------------------|
A|-----------------------------------------------------------------------------|
E|-----------------------------------------------------------------------------|

Ending:
B#                      A#                            D# strum like 3-4 times
This may sound a little rough don't wanna fall in love
(Same throughout)
This may sound a little rough don't wanna fall in love
This may sound a little fucked don't wanna fall in love
Comments