Green Day - Dominated Love Slave Chords & Tabs

 

Dominated Love Slave Chords & Tabs

Green Day Chords & Tabs

Version: 2 Type: Bass Tab 0 ratings
1 star 2 stars 3 stars 4 stars 5 stars
comments

Dominated Love Slave Bass Tab

Dominated Love Slave - Green Day
Off "Kerplunk"

Verse
G----------------------------------------
D----------------------------------------
A----2--2---7--7---2--2---9--9---2-0-----
E--0--0---5--5---0--0---7--7---------4-2-

G------------------------------------------
D------------------------------------------
A----2--2---7--7---2--2---9--9---7/9-7-----
E--0--0---5--5---0--0---7--7-----------9-7-

G-------------------
D-------------------
A----2--7--2------2-
E--0--5--0---0--0---
[ Tab from: http://www.guitartabs.cc/tabs/g/green_day/dominated_love_slave_btab_ver_2.html ]
Chorus
G------------------------------
D------------------------------
A----7--7---2--2---9--9---2--2-
E--5--5---0--0---7--7---0--0---
Repeat 1

Guitar solo- is the same as the verse
then chorus again

Outro
G-------------------------------------
D-------------------------------------
A--------------------------7----------
E--7-7-7-7-7-7-7-7-7-7-7-----7-9-7-3-0

Thats pretty much it.
Very simple song with pretty much the same finger 
movments through out the song and its fun to play!!
If ya got any questions e-mail a HappyCow13@Aol.com
or deafcow@hotmail.com
                  ~~Teddy  
Comments