Green Day - Disappearing Boy Chords & Tabs

 

Disappearing Boy Chords & Tabs

Green Day Chords & Tabs

Version: 2 Type: Bass Tab 0 ratings
1 star 2 stars 3 stars 4 stars 5 stars
comments

Disappearing Boy Bass Tab

Song: Disappearing Boy
Artist: Green Day
Album: 39/Smooth

Verse
G-----------------------------------------
D-----------------------------------------
A--------------------------------5-5-5-5--
E--5-5-5-5-5-2-2-2-2-2-3-3-3-3-3----------

2nd Verse
G-----------------------------------------
D-----------------------------------------
A--------------------------------5-5-7-5--
E--5-5-5-5-5-2-2-2-2-2-3-3-3-3-3----------

Chorus (Play it in order as you see it)
G----------------------------------------------------------------
D----------------------------------------------------------------
A--2-2-2-3-3-3-3---------2h3h5p3--2-2-2-3-3-3-3---------5-5-5-5--
E----------------3-3-3-3------------------------3-3-3-3----------
[ Tab from: http://www.guitartabs.cc/tabs/g/green_day/disappearing_boy_btab_ver_2.html ]
G----------------------------------------------------------------
D----------------------------------------------------------------
A--2-2-2-3-3-3-3---------2h3h5p3--2-2-2-3-3-3-3------------------
E----------------3-3-3-3------------------------3-3-3-3-3-3-3-3--

Bass Solo (Timing is a real bitch, let each note ring)
G--7--7-9--9-11-12-14-12-11-9-11/7---7-7--9-9--11-11-12-11--9---7------7-------------
D------------------------------------------------------------------------------------
A------------------------------------------------------------------------------------
E-------------------------------------------------------------------------5-5-5-5-5--

Verse X4
2nd Verse X1
Chorus X1
2nd Verse X2
Verse X4
Chorus X1
Bass Solo X1
2nd Verse X4
Chorus X1

This tab was created by Christian Mangs. Email me at:
Shadow145@hotmail.com
Comments