Green Day - Deadbeat Holiday Chords & Tabs

 

Deadbeat Holiday Chords & Tabs

Green Day Chords & Tabs

Version: 1 Type: Tab 0 ratings
1 star 2 stars 3 stars 4 stars 5 stars
comments

Deadbeat Holiday Tab

Author/Artist: Green Day
Title: Deadbeat Holiday
Album: Warning
Transcribed by: Radar
Email: sonar16@hotmail.com

Standard Tuning

-3-2-3-0-3-0-0-2|----|--------------------------------------------------------
-3-3-3-1-3-0-1-3|----|--------------------------------------------------------
-0-2-0-0-0-0-0-2|-x2-|4--4-5--5----5-------------------444444445-555555-7-----
-0-0-0-2-0-2-2-0|----|4--4-5--5-5--5-5-5-5-5\-2-2222222444444445-555555-7-----
-2-0-2-3-2-2-3-0|----|2--2-3--3-5--3-5-5-5-5\-2-2222222222222223-333333-5-----
-3---3---3-0----|----|----------3----3-3-3-3\-0-0000000-----------------------
Intro                                          -PM------------         >...
[ Tab from: http://www.guitartabs.cc/tabs/g/green_day/deadbeat_holiday_tab.html ]
-----------------------------|------------------------------------------------
-----------------------------|------------------------------------------------
---7-9---9-----7-------------|---7---5-----5-7--------------------------------
-5-7-9-5-9-5-3-7-------------|-5-7-5-5-5-2-5-7--------------------------------
-5-5-7-5-7-5-3-5-------------|-5-5-5-3-5-2-3-5--------------------------------
-3-----3---3-1---------------|-3---3---3-0------------------------------------
Chorus (chord changes only)   Verse (chord changes only-listen to CD for PM

------------------------------------------------------------------------------
------------------------------------------------------------------------------
-4-4-444-5-55-5-55-----5----------------------4-44-4-44-4-4---5-------7-------
-4-4-444-5-55-5-55-5-5-5-5-555-2-22-2-22-2-2--4-44-4-44-4-4---5-------7-------
-2-2-222-3-33-3-33-5-5-3-5-555-2-22-2-22-2-2--2-22-2-22-2-2---3-------5-------
-------------------3-3---3-333-0-00-0-00-0-0----------------------------------
Pre-Verse                       pm   pm   pm   pm   pm   pm  >...    >...

--------------------------|---|-----------------------------------------------
----------------8-8-7-7-7-|---|-----------------------------------------------
-7-7-7---5-5--5-----------|-x7|-7-7-7---5-5--5-77777777-----------------------
--------------------------|---|-----------------------------------------------
--------------------------|---|-----------------------------------------------
--------------------------|---|-----------------------------------------------
Middle 8
Comments