Green Day - Coming Clean Chords & Tabs

 

Coming Clean Chords & Tabs

Green Day Chords & Tabs

Version: 7 Type: Tab

Coming Clean Tab

Green Day Coming Clean
From the album Dookie!
Track 11
Tabbed by Liam 
Email: guitar_rocker_47@hotmail.com
Tuning: half a step down!

I sure hope UG accept this on cos the site has sucky tabs for this song! They may only
be cosmetic flaws but there flaws damn it! Sorry, jus sayin this tab sounds not far from
exactly how Green Day play it. Shhh I have a sick pleasure of playing and singing this!
–When im drunk of course! And I just turned 17 so it suits me! Plz rate and comment
guys –thanks.

Intro
E|-----------|
B|-----------|
G|-----------|
D|-9~~---6~~-|
A|-9~~---6~~-|
E|-7~~---4~~-|

Verse 
E|----------------------------------------|
B|----------------------------------------|
G|-4-x-44-x-4-4-4-4-4---------------------| 
D|-4-x-44-x-4-4-4-4-4--6-x-66-x-6-6-6-6-6-|
A|-2-x-22-x-2-2-2-2-2--6-x-66-x-6-6-6-6-6-|
E|---------------------4-x-44-x-4-4-4-4-4-|

Chorus
E|------------------------------------------|
B|------------------------------------------|
G|------------------------------------------|
D|-4-4-4-4-4-4-4-4-4-4--2-2-2-2-2-2-2-2-2-2-|
A|-4-4-4-4-4-4-4-4-4-4--2-2-2-2-2-2-2-2-2-2-|
E|-2-2-2-2-2-2-2-2-2-2--0-0-0-0-0-0-0-0-0-0-|
[ Tab from: http://www.guitartabs.cc/tabs/g/green_day/coming_clean_tab_ver_7.html ]
Bridge
E|------------------------------------|------------------------------------|
B|-7-----------7-7-7------------5-5-5-|-7-----------7-7-7------------5-5-5-|
G|-4--4-4-4-4--4-4-4---4-4-4-4--4-4-4-|-4--4-4-4-4--4-4-4---4-4-4-4--4-4-4-|
D|-4--4-4-4-4--4-4-4---6-6-6-6--6-6-6-|-4--4-4-4-4--4-4-4---6-6-6-6--6-6-6-|
A|------------------------------------|------------------------------------|
E|------------------------------------|------------------------------------|

E|--------------------------0-0---0--0--0-|--------------------------0-0-0-0-0-0-0-0-|
B|--------------------------0-0--------0--|--------------------------0-0-0-0-0-0-0-0-|
G|-3-3-4-3--6-4-3-4-3----1--1-1--1--1-----|-3-3-4-3--6-4-3-4-3----1--1-1-1-1-1-1-1-1-|
D|-3-3-3-3--3-3-3-3-3--2-2----------------|-3-3-3-3--3-3-3-3-3--2-2------------------|
A|---------------------2-2----------------|---------------------2-2------------------|
E|---------------------0-0----------------|---------------------0-0------------------|

Outro
E|-------------|
B|-------------|
G|-4~~~~~------|
D|-4~~~~~---6--|
A|-2~~~~~---6--|
E|----------4--|

Order
Intro
Verse
Chorus x2
Verse x2
Chorus x2
Bridge (with verse and chorus x2 played by a 2nd guitar)
Verse x2
Chorus x2
Outro