Green Day - Coming Clean Chords & Tabs

 

Coming Clean Chords & Tabs

Green Day Chords & Tabs

Version: 6 Type: Tab 0 ratings
1 star 2 stars 3 stars 4 stars 5 stars
comments

Coming Clean Tab

This is just one of about 60 pretty accurate Green Day songs that i know. if you like 
this one and want more "correct" Green Day tabs just e-mail me at gdgb15@hotmail.com 
and i'll be happy to e-mail them back to you!

1/2 step down tuning

if you dont know what this part is...listen to the middle of the song...there is a verse 
without lyrics and it has a neat little strumming pattern. this is it!


(1st part)
[ Tab from: http://www.guitartabs.cc/tabs/g/green_day/coming_clean_tab_ver_6.html ]
E----------------------------------------------
B--7--------4--4--4--4-4---4--4-4---4-5--5--5--
G--4--4-4---4--6--4--6-4---4--4-4---4-4--4--4-- <- REPEAT 
D--4--4-4---4--4--4--4-4---6--6-6---6-6--6--6--       2 X'S
A----------------------------------------------
E----------------------------------------------

(second part)

E------------------------------------0---0--
B----------------------------------0---0----
G--3--3--4-3-6--4--3--4-3----1---1---------- <- REPEAT
D--4--4--4-4-4--4--4--4-4--2-2-2------------       2 X'S
A--------------------------2-2--------------
E--------------------------0-0--------------
Comments