Green Day - Coming Clean Chords & Tabs

 

Coming Clean Chords & Tabs

Green Day Chords & Tabs

Version: 3 Type: Tab 0 ratings
1 star 2 stars 3 stars 4 stars 5 stars
comments

Coming Clean Tab

   
Green Day, Coming Clean.
Tabbed by Sebastian Lapidus, sebaslap@yahoo.com.
  
COMING CLEAN 
by green day

Tune half step down

INTRO

e------------------
B------------------
G------------------
D-9-----------6----
A-9-----------6----
E-7-----------4----

VERSE

e-------------------------------------------------
B-------------------------------------------------
G-------------------------------------------------
D-9-9-9-9-9-9-9-9-9-9-9-9-6-6-6-6-6-6-6-6-6-6-6-6-
A-9-9-9-9-9-9-9-9-9-9-9-9-6-6-6-6-6-6-6-6-6-6-6-6-
E-7-7-7-7-7-7-7-7-7-7-7-7-4-4-4-4-4-4-4-4-4-4-4-4-


CHORUS

e---------------------------------------------
B---------------------------------------------
G---------------------------------------------
D-4-4-4-4-4-4-4-4-4-4-4-2-2-2-2-2-2-2-2-2-2-2-
A-4-4-4-4-4-4-4-4-4-4-4-2-2-2-2-2-2-2-2-2-2-2-
E-2-2-2-2-2-2-2-2-2-2-2-0-0-0-0-0-0-0-0-0-0-0-

REPEAT VERSE 


REPEAT CHORUS


INTERLUDE
[ Tab from: http://www.guitartabs.cc/tabs/g/green_day/coming_clean_tab_ver_3.html ]
E-7-7-7-7-7-7-7-7-7-7-7-4-4-4-4-4-4-4-4-4-4-4-4-
B-7-7-7-7-7-7-7-7-7-7-7-4-4-4-4-4-4-4-4-4-4-4-4-
G-8-8-8-8-8-8-8-8-8-8-8-4-4-4-4-4-4-4-4-4-4-4-4- x 2 
D-9-9-9-9-9-9-9-9-9-9-9-6-6-6-6-6-6-6-6-6-6-6-6-
A-9-9-9-9-9-9-9-9-9-9-9-6-6-6-6-6-6-6-6-6-6-6-6-
E-7-7-7-7-7-7-7-7-7-7-7-4-4-4-4-4-4-4-4-4-4-4-4-

AFTER PLAY THIS

e-------------------------------------------------
B-------------------------------------------------
G-------------------------------------------------
D-4-4-4-4-4-4-4-4-4-4-4-4-2-2-2-2-2-2-2-2-2-2-2-2-
A-4-4-4-4-4-4-4-4-4-4-4-4-2-2-2-2-2-2-2-2-2-2-2-2-
E-2-2-2-2-2-2-2-2-2-2-2-2-0-0-0-0-0-0-0-0-0-0-0-0-

THEN REPEAT VERSE AND CHORUS ONCE AGAIN.

OUTRO

e--------------
B--------------
G--------------
D-9------------
A-9------------
E-7------------ 


Any questions or comments please write to sebaslap@yahoo.com 
:: Ultimate Guitar Archive :: 
http://www.ultimate-guitar.com 

Comments