Green Day - Coming Clean Chords & Tabs

 

Coming Clean Chords & Tabs

Green Day Chords & Tabs

Version: 1 Type: Tab 0 ratings
1 star 2 stars 3 stars 4 stars 5 stars
comments

Coming Clean Tab

Coming Clean
by : Green Day

Tuning: dropped down a half step

eb-------------------------------------------------------------------
bb------------------------------------------------------------------
gb-----8________1________----------------------------
db-----7________2________---------------------------
ab-----7________2________---------------------------
Eb-----9________0________---------------------------

Chorus
eb--------------------------------------------------------------- 
bb---------------------------------------------------------------
gb-----8---8-8---8-8-8--8--8-8-8------------------------
db-----7---7-7---7-7-7--7--7-7-7------------------------
ab-----7---7-7---7-7-7--7--7-7-7------------------------
Eb-----9---9-9--9-9-9---9--9-9-9------------------------

eb-------------------------------------------------------------
bb--------------------------------------------------------------
gb-----1---1-1---1-1-1-1--1-1-1------------------------
db-----2---2-2---2-2-2-2--2-2-2------------------------
ab-----2---2-2---2-2-2-2--2-2-2------------------------
Eb-----0---0-0---0-0-0-0--0-0-0-----------------------
[ Tab from: http://www.guitartabs.cc/tabs/g/green_day/coming_clean_tab.html ]
Verse
eb------------------------------------------------0-0-0--------------
bb------------------------------------------------0-0-0-------------
gb-----3--3-3-3-3--3-3-3-3-3-3-3----1--1--1-1-1---1-1-1--1-----------
db-----4--4-4-4-4--4-4-4-4-4-4-4----2--2--2-2-2----------2------------   
ab-----4--4-4-4-4--4-4-4-4-4-4-4----2--2--2-2-2----------2------------
Eb-----2--2-2-2-2--2-2-2-2-2-2-2----0--0--0-0-0----------0------------




Intro
chorus
verse 2X
chorus 2X
solo P1 2X
soloP2 2X


P1
eb----------------------------------------------------------
bb-----7--7-7----4-4-4-4-4-----4-4-4--5-5-5-5-5-5-5--------
gb-----4-4-4-----4-6-4-6-4-----4-4-4--4-4-4-4-4-4-4--------
db-----4-4-4-----4-4-4-4-4-----6-6-6--6-6-6-6-6-6-6---------
ab----------------------------------------------------------
Eb----------------------------------------------------------

P2
eb---------------------------------0-0-0-0-0-0-------------
bb---------------------------------0-0-0-0-0-0-------------
gb----3-3-4-3-6-4-3-4-----1-1------1-1-1-1-1-1-------------
db----4-4-4-4-4-4-4-4-----2-2--------------------------------
ab------------------------2-2--------------------------------
Eb------------------------0-0--------------------------------

Chorus 2X
verse 2X
Outro

Outro
eb----------------------------------
bb-----------------------------------
gb-----8____________8----------------
db-----7____________7----------------
ab-----7____________7-----------------
Eb-----9____________9---------------
Comments