Green Day - Coming Clean Chords & Tabs

 

Coming Clean Chords & Tabs

Green Day Chords & Tabs

Version: 1 Type: Bass Tab 0 ratings
1 star 2 stars 3 stars 4 stars 5 stars
comments

Coming Clean Bass Tab

   
Song: Coming Clean
Artist: Green Day
Album: Dookie
Tabbed By: Scott Sherman
Tune: E to Eb

Intro
G-------------------|
D-------------------|
A-------------------|
E-7--------4--------|

VerseA  %=Pause
G-------------------------------|
D----------------------6-6-6-6--|
A-------------------------------|
E-7%77%7%7%777774%44%4%-4-4-4-4-|

ChorusA
G------------------------------------------------------------------|
D------------------------------------------------------------------|
A------------------------------------------------------------------|
E-2-222-22-2-2-2220-000-00-0-0-0002-222-22-2-2-2220-00000000000000-|
[ Tab from: http://www.guitartabs.cc/tabs/g/green_day/coming_clean_btab.html ]
VerseB
G-----------------------------------------------------------|
D--------------------------------------------------6-6-6-6--|
A-2%22%2%2%22420--------------2%22%2%2%22420----------------|
E---------------4%44%4%4%40455--------------4%44%4%-4-4-4-4-|

ChorusB
G------------------------------------------------------------------|
D--------4---4--4------------------------4---4--4------------------|
A------------------------2-1-2-121---------------------------------|
E-2-22222--2---2-20-00000---------2-22222--2---2-20-00000000000000-|

THEN Play VerseB, ChorusB, VerseB, ChorusB, thenÖ

Outro
G---------|
D---------|
A---------|
E-7----7\-|
END
I donít know why but, out of the whole album, I had the hardest time 
with this one. Iím still not sure if itís 100% right. 
Comments or corrections mail me at shermdog17@yahoo.com
Check out my band at www.geocities.com/thecause_ifanything/punk.html
Comments