Green Day - Chump Chords & Tabs

 

Chump Chords & Tabs

Green Day Chords & Tabs

Version: 3 Type: Bass Tab 0 ratings
1 star 2 stars 3 stars 4 stars 5 stars
comments

Chump Bass Tab

   
Song: Chump
Artist: Green Day
Album: Dookie
Tabbed By: Scott Sherman
Tune: E to Eb

Intro
G----------------------------------|
D----------------------------------|
A-2-222-----------2-222------------|
E------2-0-00-0000-----2-0-00-0000-|

Verse-2x
G------------------------------------------------------------------|
D------4-2-22-2222---------------------4-2-222-222-----------------|
A-2-222-----------2-222-----------2-222----------------------------|
E----------------------2-0-00-0000----------------2-2-0202-22-2222-|
[ Tab from: http://www.guitartabs.cc/tabs/g/green_day/chump_btab_ver_3.html ]
Chorus
G------------------------------------------------------------------|
D-----------------------------------------------------2p1----------|
A-0-00---2-22-22220-00---2-22-22220-00---2-22-22220-00-------------|
E-----000-------------000-------------000-----------------0-000000-|

Pre-Verse
G----------------------------------|
D------4-2-22-2222-----------------|
A-2-222-----------2-222------------|
E----------------------2-0-00-0000-|

THEN Play Verse-2x, Chorus, Pre-Verse-2x, then…

The Outro is kinda hard. Use your thumb to hold the E-2 note while 
pulling off (D-4p2) with your baby or ring finger. It’s right trust me.

Outro-18x
G-------------------------------|
D-----4p2-----4p2-----2---2p1p0-|
A-------------------------------|
E-2-2-----2-2-----0-0---0-------|

Outro2
G--------------------------------------|
D--------------------------------------|
A---------------------9999999999999999-(keep strumming until longview)
E-2-2220-0002-2220-000-----------------|
END
Comments or corrections mail me at shermdog17@yahoo.com
Check out my band at www.geocities.com/thecause_ifanything/punk.html
Comments