Green Day - Christie Road Chords & Tabs

 

Christie Road Chords & Tabs

Green Day Chords & Tabs

Version: 1 Type: Bass Tab 0 ratings
1 star 2 stars 3 stars 4 stars 5 stars
comments

Christie Road Bass Tab

   
Song:  Christie Road
Artist:  Green Day
Album:  Kerplunk!
Tabbed by:  Martin Cox

The only tabs I could find for this song were too simple
(just the basic bassline, none of the frills), so I decided
to fill in the gaps.

The song is played tuned down a half step.  Listen to the CD
for timing.

Verse
Gb|-----------------------------------------------------------|
Db|-----------------------------------------------------------|
Ab|-----------------------------------------------------------|
Eb|-3-3-3-3-3-3-3-3-3-3-3-3-3-3-0-0-0-0-0-0-0-0-0-0-0-0-0-0-0-|

Gb|-----------------------------------------------------------|
Db|-----------------------------------------------------------|
Ab|-3-3-3-3-3-3-3-3-3-3-3-3-3-3-5-5-0-5-0-5-5-5-7-5-----------|
Eb|-------------------------------------------------7-5-------|

Gb|-----------------------------------------------------------|
Db|-----------------------------------------------------------|
Ab|-----------------------------------------------------------|
Eb|-3-3-3-3-3-3-3-3-3-3-3-3-3-3-0-0-0-0-0-0-0-0-0-0-0-0-0-0-0-|

Gb|-----------------------------------------------------------|
Db|-----------------------------------------------------------|
Ab|-3-3-3-3-3-3-3-3-3-3-3-3-3-3-5-5-0-5-0-5-5-5-5-7-5-7-5-----|
Eb|-----------------------------------------------------------|

[ Tab from: http://www.guitartabs.cc/tabs/g/green_day/christie_road_btab.html ]
Chorus
Gb|-----------------------------------------------------------|
Db|-----------------------------------------4-5-4-2-0---------|
Ab|-3-3-3-3-3-3-------------5-5-0-5-0-5-5-5-------------------|
Eb|-------------3-3-3-3-3-3-----------------------------------|

Gb|-----------------------------------------------------------|
Db|-----------------------------------------------------------|
Ab|-3-3-3-3-3-3-------------5-5-0-5-0-5-5-5-5-7-5-7-5---------|
Eb|-------------3-3-3-3-3-3-----------------------------------|

Gb|-----------------------------------------------------------|
Db|-----------------------------------------4-5-4-2-0---------|
Ab|-3-3-3-3-3-3-------------5-5-0-5-0-5-5-5-------------------|
Eb|-------------3-3-3-3-3-3-----------------------------------|

Gb|-----------------|
Db|-----------------|
Ab|-3--------5------|
Eb|-----3-----------|


End
Riff 1 (play 4 times)
Gb|------------------5--|
Db|--------5------------|
Ab|----------------3----|
Eb|-111--3----111-------|


Riff 2 (play 4 times)
Gb|----------------------------------|
Db|----------------------------------|
Ab|-----------2-2-2-2----------------|
Eb|---3-3-3-3---------1-1-1-1-1-1-1--|

Gb|----------------------------------|
Db|----------------------------------|
Ab|-----------2-2-2-2----------------|
Eb|---3-3-3-3---------0-0-0-0-0-0-0--|


Riff 3 (play 3 times)
Gb|---------------|
Db|---------------|
Ab|--3-3----------|
Eb|------0-0--3---|


Riff 4
Gb|-------------------------------------|
Db|-------------------------4h5p4-5-----|
Ab|------------3333333333---------------|
Eb|-111111111---------------------------|


Arrangement:
Verse
Chorus
Verse
Chorus
End:
 Riff 1 4x
 Riff 2 4x
 Riff 3 3x
 Riff 4 1x
 Riff 1 4x

End on:

Eb|-111--3-|

Comments