Green Day - Castaway Chords & Tabs

 

Castaway Chords & Tabs

Green Day Chords & Tabs

Version: 5 Type: Tab 1 rating
1 star 2 stars 3 stars 4 stars 5 stars
comments

Castaway Tab

   
Green Day-Cast Away.
 Tabbed by Justal zxgoldfingerxz@aol.com.
  
This is the best i can make this tab. I went to guitar center and memorized the tab so i didnt have to buy the book. here is as much as i remember.

b=bend
p=pull off


Intro:
[---------------------------------------------------]
[---------------------------------------------------]
[--xxx---4-4-4----------------4-4-4-----------------]
[--xxx---4-4-4--6-6-6--2-2-2--4-4-4-----------------]
[--xxx---2-2-2--6-6-6--2-2-2--2-2-2-----------------]
[---------------4-4-4--0-0-0------------------------]

Verse:\"im on a sentimental journey......
[---------------------------------------------------]
[---------------------------------------------------]
[---4--4-4----------------4-4-4-4-------------------]
[---4--4-4-4-4-4-4--2-2-2-4-4-4-4-------------------]
[---2--2-2-4-4-4-4--2-2-2-2-2-2-2-------------------]
[----------2-2-2-2--0-0-0---------------------------]

INterlude: I'm on a mission....
[---------------------------------------------------]
[---------------------------------------------------]
[------------------4-4-4-3-4--4-4-4-3-4-------------]
[----2-------2-----4-4-4-3-4--4-4-4-3-4-------------]
[----2-------2-----2-2-2-1-2--2-2-2-1-2-------------]
[----0-------0--------------------------------------]
[ Tab from: http://www.guitartabs.cc/tabs/g/green_day/castaway_tab_ver_5.html ]
other thing: Lost and found....
[---------------------------------------------------]
[---------------------------------------------------]
[---------------------------------------------------]
[--2-----------------4------------------------------]
[--2-----------------4------------------------------]
[--0-----------------2------------------------------]


Guitar solo:
[-----------2-2------2-2-----5p2---5p2---5p2--5p2--]
[-----------2-2------2-2---------2-----2-----2---2-]
[------4-b-------2-3------------------------------5b]
[---------------------------------------------------]
[---------------------------------------------------]
[---------------------------------------------------]

bass solo: (what the hell whoever needs it here itis)
[---------------------------------------------------]
[---------------------------------1-1------4-1------]
[--2-2-2--------------2-2-2----2-2----2--2-----2-2-2]
[--------2-2-2--0-0-0-------------------------------]

[---------------------------------------------------][---------------------------------------------------][--2-2-1-1------------------------------------------][----------4-2--------------------------------------]

email me at zxgoldfingerxz@aol.com for other correct tabs
 
:: Ultimate Guitar Archive :: 
http://www.ultimate-guitar.com 



Comments