Green Day - Castaway Chords & Tabs

 

Castaway Chords & Tabs

Green Day Chords & Tabs

Version: 3 Type: Tab 0 ratings
1 star 2 stars 3 stars 4 stars 5 stars
comments

Castaway Tab

   
Green Day,Castaway.
Tabbed by Mack Crowe (aka Melven the Spidermonkey),mackdaddy248@hotmail.com.
  
remember to view this tab with courier or any other font that works
*note* this tab does not have the exact timing it only shows the right notes played (figuring out the timing ain't that hard)
*another note* this is all of the song except the solo, i'm not that good cuz i'm only 15 fer cryin out loud

main riff (intro, verse, chorus, bridge)
e|------------------------------------------------------------|
b|------------------------------------------------------------|
g|-4-4-4-4--------------------4-4-4-4-------------------------|
d|-4-4-4-4--6-6-6-6--2-2-2-2--4-4-4-4-------------------------|
a|-2-2-2-2--6-6-6-6--2-2-2-2--2-2-2-2-------------------------|
e|----------4-4-4-4--0-0-0-0----------------------------------|
[ Tab from: http://www.guitartabs.cc/tabs/g/green_day/castaway_tab_ver_3.html ]
I'm on a mission...
e|------------------------------------------------------------|
b|------------------------------------------------------------|
g|--------------4-4-3-4--4-4-3-4------------------------------|
d|-2-2-2-2-2-2--4-4-3-4--4-4-3-4------------------------------|
a|-2-2-2-2-2-2--2-2-1-2--2-2-1-2------------------------------|
e|-0-0-0-0-0-0------------------------------------------------|

An expedition...
e|------------------------------------------------------------|
b|------------------------------------------------------------|
g|------------------------------------------------------------|
d|-2-2-2-2-2-2-2-2-2-2-2-2---4--------------------------------|
a|-2-2-2-2-2-2-2-2-2-2-2-2---4--------------------------------|
e|-0-0-0-0-0-0-0-0-0-0-0-0---2--------------------------------|

Lost and found...
e|---|---|
b|---|---|
g|---|---|
d|-2-|-4-|
a|-2-|-4-|
e|-0-|-2-|

End on (Of course)
e|---|
b|---|
g|-4-|
d|-4-|
a|-2-|
e|---|

that's pretty much it, lather rinse repeat as needed
i appreciate all emails, good, bad, sexy, perverted
please email me if you can, send corrections, advice on hygenine 
just tell me what you think!
thanks, 
                melvin the spider monkey 
:: Ultimate Guitar Archive :: 
http://www.ultimate-guitar.com 

Comments