Green Day - Castaway (real Verison) Chords & Tabs

 

Castaway (real Verison) Chords & Tabs

Green Day Chords & Tabs

Version: 1 Type: Bass Tab 1 rating
1 star 2 stars 3 stars 4 stars 5 stars
comments

Castaway (real Verison) Bass Tab

Title: "Castaway"
Artist: Green Day
Album: Warning

INTRO (Enter right after the guitar introduces the melody)
G|------------------------------------------------------------------------------------------------|
D|------------------------------------------------------------------------------------------------|
A|-----2--0/2--0/2-----------------------2-2--2--1------------------------------------------------|
E|------------------4-4--4--4--0-X-O-X-0----------------------------------------------------------|

G|------------------------------------------------------------------------------------------------|
D|------------------------------------------------------------------------------------------------|
A|-----2--0/2--0/2-----------------------2-2--2---------------------------------------------------|
E|------------------4-4--4--4--0-X-O-X-0----------------------------------------------------------|

VERSE I
(===============================================3x's==============================================)
G|------------------------------------------------------------------------------------------------|
D|------------------------------------------------------------------------------------------------|
A|-----2--0/2--0/2-----------------------2-2--2--1------------------------------------------------|
E|------------------2-2--2--2--0-X-O-X-0----------------------------------------------------------|

G|------------------------------------------------------------------------------------------------|
D|------------------------------------------------------------------------------------------------|
A|-----2--0/2--0/2-----------------------2-2-2-2-2-2-2-2------------------------------------------|
E|------------------2-2--2--2--0-X-O-X-0----------------------------------------------------------|

CHORUS I
G|------------------------------------------------------------------------------------------------|
D|-2--2-2--2-2--2--2-2--2-2-----------------------------------------------------------------------|
A|-----------------------------------------------------2-0-2-0-2--0-1/2-X-X-2-0-2-0-2--0-1/2------|
E|---------------------------0--0-0--0-0--0--0-0--0-0----------------------------------------2----|

G|------------------------------------------------------------------------------------------------|
D|---------------------------2--2-2--2-2--2--2-2--2-2-------------4-4-4-4-------------------------|
A|------------------------------------------------------------------------------------------------|
E|-0--0-0--0-0--0--0-0--0-0----------------------------2------2-2---------------------------------|

(===============================================3x's==============================================)
G|------------------------------------------------------------------------------------------------|
D|------------------------------------------------------------------------------------------------|
A|-----2--0/2--0/2-----------------------2-2--2--1------------------------------------------------|
E|------------------4-4--4--4--0-X-O-X-0----------------------------------------------------------|

G|------------------------------------------------------------------------------------------------|
D|------------------------------------------------------------------------------------------------|
A|-----2--0/2--0/2-----------------------2-2-2-2-2-2-2--------------------------------------------|
E|------------------4-4--4--4--0-X-O-X-0---------------0------0-0-0-0-2---------------------------|

G|------------------------------------------------------------------------------------------------|
D|------------------------------------------------------------------------------------------------|
A|-----2--0/2--0/2-----------------------2-2--2--1------------------------------------------------|
E|------------------4-4--4--4--0-X-O-X-0----------------------------------------------------------|

G|------------------------------------------------------------------------------------------------|
D|------------------------------------------------------------------------------------------------|
A|-----2--0/2--0/2-----------------------2-2--2---------------------------------------------------|
E|------------------4-4--4--4--0-X-O-X-0----------------------------------------------------------|

VERSE II
(===============================================3x's==============================================)
G|------------------------------------------------------------------------------------------------|
D|------------------------------------------------------------------------------------------------|
A|-----2--0/2--0/2-----------------------2-2--2--1------------------------------------------------|
E|------------------2-2--2--2--0-X-O-X-0----------------------------------------------------------|

G|------------------------------------------------------------------------------------------------|
D|------------------------------------------------------------------------------------------------|
A|-----2--0/2--0/2-----------------------2-2-2-2-2-2-2-2------------------------------------------|
E|------------------2-2--2--2--0-X-O-X-0----------------------------------------------------------|

CHORUS II
G|------------------------------------------------------------------------------------------------|
D|-2--2-2--2-2--2--2-2--2-2-----------------------------------------------------------------------|
A|-----------------------------------------------------2-0-2-0-2--0-1/2-X-X-2-0-2-0-2--0-1/2------|
E|---------------------------0--0-0--0-0--0--0-0--0-0----------------------------------------2----|

G|------------------------------------------------------------------------------------------------|
D|---------------------------2--2-2--2-2--2--2-2--2-2-------------4-4-4-4-------------------------|
A|------------------------------------------------------------------------------------------------|
E|-0--0-0--0-0--0--0-0--0-0----------------------------2------2-2---------------------------------|

(===============================================3x's==============================================)
G|------------------------------------------------------------------------------------------------|
D|------------------------------------------------------------------------------------------------|
A|-----2--0/2--0/2-----------------------2-2--2--1------------------------------------------------|
E|------------------4-4--4--4--0-X-O-X-0----------------------------------------------------------|

G|------------------------------------------------------------------------------------------------|
D|------------------------------------------------------------------------------------------------|
A|-----2--0/2--0/2-----------------------2-2-2-2-2-2-2--------------------------------------------|
E|------------------4-4--4--4--0-X-O-X-0---------------0------0-0-0-0-2---------------------------|
[ Tab from: http://www.guitartabs.cc/tabs/g/green_day/castaway_real_verison_btab.html ]
(===============================================2x's==============================================)
G|------------------------------------------------------------------------------------------------|
D|------------------------------------------------------------------------------------------------|
A|-----2--0/2--0/2-----------------------2-2--2--1------------------------------------------------|
E|------------------4-4--4--4--0-X-O-X-0----------------------------------------------------------|

G|------------------------------------------------------------------------------------------------|
D|------------------------------------------------------------------------------------------------|
A|-----2--0/2--0/2------------------------2-2--2--1-----------------------------------------------|
E|------------------4--4--4--4--0-X-O-X-0---------------------------------------------------------|

G|------------------------------------------------------------------------------------------------|
D|------------------------------------------------------------------------------------------------|
A|-----2--0/2--0/2-----------------------2-2-2-2-2-2-2--------------------------------------------|
E|------------------4-4--4--4--0-X-O-X-0----------------------------------------------------------|

G|------------------------------------------------------------------------------------------------|
D|--------------------------------------------4--4-4--4-4-----------------------------------------|
A|------------------1--1-1--1-1--4--4-4--4-4------------------------------------------------------|
E|-----2--2-2--2-2--------------------------------------------------------------------------------|

BRIDGE
G|------------------------------------------------------------------------------------------------|
D|------------------------------------------------------------------------------------------------|
A|-----2--0/2--0/2-----------------------2-2--2--1------------------------------------------------|
E|------------------2-2--2--2--0-X-O-X-0----------------------------------------------------------|

G|------------------------------------------------------------------------------------------------|
D|-----1---------4--------------------------------------------------------------------------------|
A|--2-----2-----------------------7--4-6-6-4-2----------------------------------------------------|
E|------------2-----2--0-X-O-X-0------------------------------------------------------------------|

G|------------------------------------------------------------------------------------------------|
D|------------------------------------------------------------------------------------------------|
A|-----2--0/2--0/2-----------------------2-2--2--1------------------------------------------------|
E|------------------2-2--2--2--0-X-O-X-0----------------------------------------------------------|

G|------------------------------------------------------------------------------------------------|
D|-----1---------4--------------------------------------------------------------------------------|
A|--2-----2-----------------------7--4-6-6-4-2----------------------------------------------------|
E|------------2-----2--0-X-O-X-0------------------------------------------------------------------|

G|------------------------------------------------------------------------------------------------|
D|------1-1---------------------------------------------------------------------------------------|
A|--2-2-----2-2------------------------2-2--2--1--------------------------------------------------|
E|---------------2--2--2--2--0-X-O-X-0------------------------------------------------------------|

G|------------------------------------------------------------------------------------------------|
D|-----1---------4--------------------------------------------------------------------------------|
A|--2-----2----------------------2-2-2-2-2-2-2-2--------------------------------------------------|
E|------------2-----2--0-X-O-X-0------------------------------------------------------------------|

CHORUS III
G|------------------------------------------------------------------------------------------------|
D|-2--2-2--2-2--2--2-2--2-2-----------------------------------------------------------------------|
A|-----------------------------------------------------2-0-2-0-2--0-1/2-X-X-2-0-2-0-2--0-1/2------|
E|---------------------------0--0-0--0-0--0--0-0--0-0----------------------------------------2----|

G|------------------------------------------------------------------------------------------------|
D|---------------------------2--2-2--2-2--2--2-2--2-2-------------4-4-4-4-------------------------|
A|------------------------------------------------------------------------------------------------|
E|-0--0-0--0-0--0--0-0--0-0----------------------------2------2-2---------------------------------|

(===============================================3x's==============================================)
G|------------------------------------------------------------------------------------------------|
D|------------------------------------------------------------------------------------------------|
A|-----2--0/2--0/2-----------------------2-2--2--1------------------------------------------------|
E|------------------4-4--4--4--0-X-O-X-0----------------------------------------------------------|

G|------------------------------------------------------------------------------------------------|
D|------------------------------------------------------------------------------------------------|
A|-----2--0/2--0/2-----------------------2-2-2-2-2-2-2--------------------------------------------|
E|------------------4-4--4--4--0-X-O-X-0----------------------------------------------------------|

G|------------------------------------------------------------------------------------------------|
D|------------------------------------------------------------------------------------------------|
A|------------------------------------------------------------------------------------------------|
E|-------------0--0-0--0-0--0--0-0--0-0--2--2-2--2-2--2-2-2-2-2-2-2-2-----------------------------|

(===============================================2x's==============================================)
G|------------------------------------------------------------------------------------------------|
D|------------------------------------------------------------------------------------------------|
A|-----2--0/2--0/2-----------------------2-2--2--1------------------------------------------------|
E|------------------4-4--4--4--0-X-O-X-0----------------------------------------------------------|

G|------------------------------------------------------------------------------------------------|
D|------------------------------------------------------------------------------------------------|
A|-----2--0/2--0/2------------------------2-2--2--1-----------------------------------------------|
E|------------------4--4--4--4--0-X-O-X-0---------------------------------------------------------|

G|------------------------------------------------------------------------------------------------|
D|------------------------------------------------------------------------------------------------|
A|-----2--0/2--0/2-----------------------2--2-----------------------------------------------------|
E|------------------4-4--4--4--0-X-O-X-0----------------------------------------------------------|

GREEN DAY ROCKS!!!!!!!!
Comments