Green Day - Castaway Chords & Tabs

 

Castaway Chords & Tabs

Green Day Chords & Tabs

Version: 8 Type: Bass Tab 0 ratings
1 star 2 stars 3 stars 4 stars 5 stars
comments

Castaway Bass Tab

   
-------------------------------------------------------------------------------
			     Castaway- Green Day
-------------------------------------------------------------------------------

Tabbed By : Richard
e-mail: richie_hizzle@hotmail.com

Tuning:standard

okay, there are a few tabs for this, but they have been played around with a lot and it 
be just me, but i think that the bass to this song is simpler than that so here goes, if 
wrong, oh well it still sounds okay to me.

Intro
G|------------------------------------|
D|------------------------------------|
A|------------------------------2-2-2-|   x2
E|-7-7-7-7-7--4-4--4-0--0-0-0-0-------|

Verse
G|------------------------------------|
D|------------------------------------|
A|------------------------------2-2-2-|   x4
E|-7-7-7-7-7--4-4--4-0--0-0-0-0-------|


Pre-Chorus
G|--------------------------------------------------|
D|--------------------------------------------------|
A|--------------------------------------------------|
E|-0000-0000-0000-0000--7x-7x-7x-6-7--7x-7x-7x-6-7--|

G|------------------------|
D|------------------------|
A|------------------------|
E|-0000-0000-0000-0000-2~-|

Chorus (same as verse)
G|------------------------------------|
D|------------------------------------|
A|------------------------------2-2-2-|   x4
E|-7-7-7-7-7--4-4--4-0--0-0-0-0-------|

Pre-verse (lost and found...)
G|--------|
D|--------|
A|--------|
E|-2~-0~--|

G|------------------------------------|
D|------------------------------------|
A|------------------------------2-2-2-|  x2
E|-7-7-7-7-7--4-4--4-0--0-0-0-0-------|

Verse 2

G|------------------------------------|
D|------------------------------------|
A|------------------------------2-2-2-|   x4
E|-7-7-7-7-7--4-4--4-0--0-0-0-0-------|


Pre-Chorus 2
G|--------------------------------------------------|
D|--------------------------------------------------|
A|--------------------------------------------------|
E|-0000-0000-0000-0000--7x-7x-7x-6-7--7x-7x-7x-6-7--|

G|------------------------|
D|------------------------|
A|------------------------|
E|-0000-0000-0000-0000-2~-|

Chorus 2 (same as verse)
G|------------------------------------|
D|------------------------------------|
A|------------------------------2-2-2-|   x4
E|-7-7-7-7-7--4-4--4-0--0-0-0-0-------|

Bridge part 1
G|--------|
D|--------|
A|--------|
E|-2~-0~--|
[ Tab from: http://www.guitartabs.cc/tabs/g/green_day/castaway_btab_ver_8.html ]
Bridge part 2
G|------------------------------------|
D|------------------------------------|
A|------------------------------2-2-2-|   x2
E|-7-7-7-7-7--4-4--4-0--0-0-0-0-------|

G|--------------------------------------|
D|--------------------------------------|
A|--------------------------------2-2-2-|
E|-7-7-7-7-7--4-4-4-4---0-0-0-0-0-------|

G|------------------------------------|
D|------------------------------------|
A|------------------------------2-2-2-|
E|-7-7-7-7-7--4-4--4-0--0-0-0-0-------|

Solo
G|---------------------------------------------|
D|---------------------------------------------|
A|---------------------------------------2-2-2-|
E|-7--7-7--7-7--4--4-4--4-4--0--0-0--0-0-------|

Verse 3 (bass plays on its own)
G|------------------------------------------------------------------------|
D|--------------------------------------------------4-------------2p1-1-1-|
A|------------------------------2-2-2------6-7-7--------------------------|
E|-7-7-7-7-7--4-4--4-0--0-0-0-0--------7-7-------4-4--0--0-0--0-0---------|

play this 3 times before

Pre-Chorus 3
G|--------------------------------------------------|
D|--------------------------------------------------|
A|--------------------------------------------------|
E|-0000-0000-0000-0000--7x-7x-7x-6-7--7x-7x-7x-6-7--|

G|------------------------|
D|------------------------|
A|------------------------|
E|-0000-0000-0000-0000-2~-|

Chorus 3 (same as verse)
G|------------------------------------|
D|------------------------------------|
A|------------------------------2-2-2-|   x4
E|-7-7-7-7-7--4-4--4-0--0-0-0-0-------|

Chorus variation(lost and found...)

G|-------------------|
D|-------------------|
A|-------------------|
E|-22222222-00000000-|


Outro
G|------------------------------------|
D|------------------------------------|
A|------------------------------2-2-2-|   x2
E|-7-7-7-7-7--4-4--4-0--0-0-0-0-------|

G|--------------------------------------|
D|--------------------------------------|
A|--------------------------------2-2-2-|
E|-7-7-7-7-7--4-4-4-4---0-0-0-0-0-------|

G|------------------------------------|
D|------------------------------------|
A|------------------------------2-2-2-|
E|-7-7-7-7-7--4-4--4-0--0-0-0-0-------|

the end.

any probs or corrections or whatever give us a bell my e mail is at the top please rate 
tell me what you think please! cheers
Comments