Green Day - Burnout Chords & Tabs

 

Burnout Chords & Tabs

Green Day Chords & Tabs

Version: 5 Type: Tab 0 ratings
1 star 2 stars 3 stars 4 stars 5 stars
comments

Burnout Tab

   
_________________________________________________________
                                                        |
Burnout                                                 |
________________________________________________________|
                                                        |
Track 1: Dookie Album                                   |
Artist: Green Day                                       |
E-mail: flame1996@live.com                              |
Tabber: Insomniac_123                                   |
--------------------------------------------------------|

************
Notes:
************

+ I checked this and its 100% Correct.
+ No negative comments in e-mail or this please.
+ Just enjoy reading!

-------------
Intro:
-------------

I declare I don't care no more, I'm burning up and out and growing bored...
Eb||----------------------------------------||
Bb||----------------------------------------||
Gb||---------5-5555-555----------55-x-------||
Db||-5-5-555-5-5555-555-5-555-55-55-x-3-333-||
Ab||-5-5-555-3-3333-333-5-555-55-33-x-3-333-||
Eb||-3-3-333------------3-333-33------1-111-||

...in my smoked out boring room
Eb||--------------------|------------------||
Bb||--------------------|------------------||
Gb||--------------------|-7-7-7777-77-7777-||
Db||-5-5-555--3-333-333-|-7-7-7777-77-7777-||
Ab||-5-5-555--3-333-333-|-5-5-5555-55-5555-||
Eb||-3-3-333--1-111-111-|------------------||

--------------
Chorus:
--------------

I'm not growing up, I'm just burning out,
Eb||--------------------------------------||
Bb||--------------------------------------||
Gb||-5-5-555-----------55-x---------------||
Db||-5-5-555-5-555-555-55-x-33-x-5-55-555-||
Ab||-3-3-333-5-555-555-33-x-33-x-5-55-555-||
Eb||---------3-333-333------11-x-3-33-333-||
[ Tab from: http://www.guitartabs.cc/tabs/g/green_day/burnout_tab_ver_5.html ]
And I stepped in line to walk amongst the dead.
Eb||--------------------------------------||
Bb||--------------------------------------||
Gb||-5-555-55------------7-7-7777-77-7777-||
Db||-5-555-55-3-333-333--7-7-7777-77-7777-||
Ab||-3-333-33-3-333-333--5-5-5555-55-5555-||
Eb||----------1-111-111-------------------||

-----------------
After Chorus 2:
-----------------

Dead........Dead........

Guitar One:
                                              x2
Eb||---------------------|---------------------||
Bb||---------------------|---------------------||
Gb||-7777-7777-7777-7777-|-7777-7777-7777-7777-||
Db||-7777-7777-7777-7777-|-7777-7777-7777-7777-||
Ab||-5555-5555-5555-5555-|-5555-5555-5555-5555-||
Eb||---------------------|---------------------||

Guitar Two: (after Guitar One's first repeat)

Eb||---------------------|------------||
Bb||-7777-7777-8888-8888-|-10---------||
Gb||-7777-7777-7777-7777-|--7---(x16)-||
Db||-0000-0000-0000-0000-|--0---------||
Ab||---------------------|------------||
Eb||---------------------|------------||

-------------
DRUM SOLO:
-------------

Eb||---------------------||
Bb||---------------------||
Gb||---------------------||
Db||-55-x--3-5-----------||
Ab||-55-x--3-5-----------||
Eb||-33-x--1-3-----------||

****************
Lyrics
****************

(Verse:)

I declare I don't care no more,
I'm burning up and out and growing bored,
In my smoked out boring room.
My hair is shagging in my eyes,
Dragging my feet to hit the streets tonight,
To drive along these s*** town lights..

(Chorus:)

I'm not growing up, I'm just burning out,
And I stepped in line to walk amongst the dead.

(Verse 2:)

A pathy has rained on me,
And now I'm feeling like a soggy dream,
So close to drowning but I don't mind.
I live inside this mental cave,
Throw my emotions in the grave, 
Hell, who needs them anyway..

(Chorus:)

I'm not growing up, I'm just burning out,
And I stepped in line to walk amongst the dead.
I'm not growing up, I'm just burning out,
And I stepped in line to walk amongst the dead.......
Dead........

Thank you for reading!
Comments