Green Day - Burnout Chords & Tabs

 

Burnout Chords & Tabs

Green Day Chords & Tabs

Version: 2 Type: Bass Tab 0 ratings
1 star 2 stars 3 stars 4 stars 5 stars
comments

Burnout Bass Tab

Burnout 
by Green Day
from the album Dookie

|-----------------------------------------------------------------------------
|-----------------------------------------------------------------------------
|--------------4--4--4--4--4-------------------4--4--4------------------------
|4--4--4--4--4----------------2--4--4--4--4--4---------2--2--2--4--4--4--4--4-

|-----------------------------------------------------------------------------
|-----------------------------------------------------------------------------
|--------------------6--6--6--6--6--6-----------------------------------------
|---2--2--2--2--2-------------------------------------------------------------
[ Tab from: http://www.guitartabs.cc/tabs/g/green_day/burnout_btab_ver_2.html ]
|-----------------------------------------------------------------------------
|-----------------------------------------------------------------------------
|4--4--4-------------------4--------------------4--4--4------------6--6--6--6-
|--------4--4--4--4--4--4-----2--4--4--4--4--4-----------2--2--2--------------

|----------------------------------------------------------------------------- 
|-----------------------------------------------------------------------------
|---6--6--6--6--6--6--6--6----------------------------------------------------
|-------------------------------4--4--4--2--4------4--4--4--2--4--------------

Interpretation by Dave Miller ~ dwm3@po.cwru.edu
Comments