Green Day - Brutal Love Chords & Tabs

 

Green Day Chords & Tabs

Version: 1 Type: Tab 0 ratings
1 star 2 stars 3 stars 4 stars 5 stars
comments

Brutal Love Tab

   
GREEN DAY
TRE!
BRUTAL LOVE
STANDARD

INTRO:(CLEAN) 0:00
e|---------------|
B|---------------|
G|--------5------|
D|------6---6----| X4
A|----6-------6--|
E|--4------------|
       G#Maj

First verse part
0:08 G#Maj           D#Maj          G#Maj          C#Maj         G#Maj          D#Maj           G#Maj
e|------------|-----------------|-----------|----------------|-----------|-----------------|-----------|
B|------------|-----------------|-----------|----------------|-----------|-----------------|-----------|
G|-------5----|---------12------|------5----|--------10------|------5----|---------12------|------5----|
D|-----6---6--|------13----13---|----6---6--|-----11----11---|----6---6--|------13----13---|----6---6--|
A|---6-------6|---13----------13|--6-------6|--11----------11|--6-------6|---13----------13|--6-------6|
E|-4----------|11---------------|4----------|9---------------|4----------|11---------------|4----------|
       X2             X2              X2            X2             X2             X2             X4
 

0:38
e|-------4----|---------11------|------4----|--------9-------|------4----|---------11------|------4----|
B|------------|-----------------|-----------|----------------|-----------|-----------------|-----------|
G|------------|-----------------|-----------|----------------|-----------|-----------------|-----------|
D|-----6---6--|------13----13---|----6---6--|-----11----11---|----6---6--|------13----13---|----6---6--|
A|---6-------6|---13----------13|--6-------6|--11----------11|--6-------6|---13----------13|--6-------6|
E|-4----------|11---------------|4----------|9---------------|4----------|11---------------|4----------|
       X2             X2              X2            X2             X2             X2             X4



                     1:10.
                     Similar to 'First verse Part' but when you
                     Reach the highest note of the arpeggio, GTR 2 plays
                     a staccato of the whole chord.
                     Same things till 2:10.. -


2:10 (GTR 2 STILL PLAYING STACCATO'S)       
e|------------------|-----------|-----------------|------------|
B|------------------|-----------|-----------------|------------|
G|----------10------|------6----|---------13------|------6-----|
D|-------11----11---|----5---5--|------12----12---|----5---5---| 
A|----11----------11|--5-------5|---12----------12|--5-------5-|
E|--9---------------|4----------|11---------------|4-----------|..
         X2              X2              X2              X2

e|------------------|-----------------------|----------------|-11--|
B|------------------|-----------------------|----------------|-11--|
G|----------10------|------6-----------1----|--------10------|-12--|
D|-------11----11---|----5---5-------3---3--|-----11----11---|-13--| 
A|----11----------11|--5-------5---3-------3|--11----------11|-13--|
E|--9---------------|4-----------1----------|9---------------|-11--|
         X2                                        X2    


             2:38 - 2:43 . . .

[ Tab from: http://www.guitartabs.cc/tabs/g/green_day/brutal_love_tab.html ]
2:44 GTR 1 (mid-distorsion)
e|--------------------------------------------------NOT THAT SURE----|
B|--------------------------------------------------ABOUT THIS CHORD-|
G|--5-5-5-5-5-5-12-12-12-12-12-12-10-10-10-10-10-10-4-4-4-4-4-4------|
D|--6-6-6-6-6-6-13-13-13-13-13-13-11-11-11-11-11-11-4-4-4-4-4-4------| 
A|--6-6-6-6-6-6-13-13-13-13-13-13-11-11-11-11-11-11-6-6-6-6-6-6------|
E|--4-4-4-4-4-4-11-11-11-11-11-11-9--9--9--9--9--9--4-4-4-4-4-4------| ..
|
e|-----------------------------------------------------|
B|-----------------------------------------------------|
G|--------------------------5-5-5-5-5-5----------------|
D|--6-6-6-6-6-6-5-5-5-5-5-5-6-6-6-6-6-6-8-8-8-8-///----| X2
A|--6-6-6-6-6-6-5-5-5-5-5-5-6-6-6-6-6-6-8-8-8-8-///=---|
E|--4-4-4-4-4-4-3-3-3-3-3-3-4-4-4-4-4-4-6-6-6-6-///----|
|
|
2:44 GTR 2 LEAD BRAKE
e|---------------------------------------------------------------|
B|---------------------------------------------------------------|
G|-1~\--10-8---8-10-8~-10-8--1~----1~-5~-0~--0-1~-3~--3-1-3~-----|
D|-----------------------------------------------------------8//-| X2 
A|-----------------------------------------------------------8//-|
E|-----------------------------------------------------------6//-|



3:15 ''BAD LUCK''
e|---------------------------------------------------------------------------------------------|
B|---------------------------------------------------------------------------------------------|
G|-10-10-10-10-------5-5-5-5-------12-12-12-12-12-12-12-12-12-12-12-12-5-5-5-5-5-5-5-5-5-5-5-5-|
D|-11-11-11-11-------6-6-6-6-------13-13-13-13-13-13-13-13-13-13-13-13-6-6-6-6-6-6-6-6-6-6-6-6-| 
A|-11-11-11-11-(x2)--6-6-6-6-(x2)--13-13-13-13-13-13-13-13-13-13-13-13-6-6-6-6-6-6-6-6-6-6-6-6-|
E|-9--9--9--9--------4-4-4-4-------11-11-11-11-11-11-11-11-11-11-11-11-4-4-4-4-4-4-4-4-4-4-4-4-|

3:29 ''BAD LOVE''
e|--------------------------------------------------------------------------------------------------|
B|--------------------------------------------------------------------------------------------------|
G|-10-10-10-10-------5-5-5-5-5-5-1-1-1-1-1-1--10-10-10-10-10-10-10-10-10-10-10-10-12-12-12-12-12-12-|
D|-11-11-11-11-------6-6-6-6-6-6-3-3-3-3-3-3--11-11-11-11-11-11-11-11-11-11-11-11-13-13-13-13-13-13-| 
A|-11-11-11-11-(x2)--6-6-6-6-6-6-3-3-3-3-3-3--11-11-11-11-11-11-11-11-11-11-11-11-13-13-13-13-13-13-|
E|-9--9--9--9--------4-4-4-4-4-4-1-1-1-1-1-1--9--9--9--9--9--9--9--9--9--9--9--9--11-11-11-11-11-11-|..
(could'nt fit it all in one line)
e|--------------------------|
B|--------------------------|
G|--------------------------|
D|-141414141414141414141414-| 
A|-141414141414141414141414-|
E|-121212121212121212121212-|


3:44 Outro (AT THIS POINT, THEY GO UP ONE SEMITONE. SO I AM GOING TO PUT
EASIER TO REACH POWERCHORDS INSTEAD OF THE HIGHER UP BAR CHORDS (PAST 12TH FRET).)))
e|-----------------------------------------------------------------|
B|-----------------------------------------------------------------|
G|--6-6-6-6-6-6--9-9-9-9-9-9--11-11-11-11-11-11--10-10-10-10-10-10-|
D|--7-7-7-7-7-7--9-9-9-9-9-9--12-12-12-12-12-12--10-10-10-10-10-10-| 
A|--7-7-7-7-7-7--7-7-7-7-7-7--12-12-12-12-12-12--8--8--8--8--8--8--|
E|--5-5-5-5-5-5---------------10-10-10-10-10-10--------------------|..
|
|                                                           END ON
e|-----------------------------------------------------|     ---
B|-----------------------------------------------------|     ---
G|-----------------------------------------9-9-9-------|     -6~
D|--7-7-7-7-7-7--6-6-6-6-6-6--7-7-7-7-7-7--9-9-9-8-8-8-| x4  -7~
A|--7-7-7-7-7-7--6-6-6-6-6-6--7-7-7-7-7-7--7-7-7-8-8-8-|     -7~
E|--5-5-5-5-5-5--4-4-4-4-4-4--5-5-5-5-5-5--------6-6-6-|..   -5~
Comments